Andrew Ripp Tabs

Wont Let Go

1 versions

TAB

            Artist: Andrew Ripp
Song: Won't Let Go
Album: Won't Let Go




Capo on the 2nd feet




Vers:

Am
I put on the yoke
               F
Been pullin my plow
      G                                    Dm
Been draggin across these half baked acre's for years now

Am
Throw me a rope
            F
Throw me a line
      G                                         Dm
It's been eight hours of high noon hangin aint it supper time




Pre-Chorus:

     F
Been holdin on so long now
       Em
In the middle of this drought 
      F
Been leanin on the promise
     G
That you wont let me down



Chorus:

     Am        F
So I wont let go
   G       Dm
I wont let go
     Am        F
No I wont let go
G
I wont let go if you don't



Vers:

Am
Send me a sign
                 F
Down here in the dust
G                                           Dm
Lord I'm countin on a couple drops that will fill me up

   Am                                      F
So go on take your time but don't take too long
  G
I know i'm in good hands so I'll keep on
Dm
  Singing along




Pre Chorus:

     F
Been holdin on so long now
       Em
In the middle of this drought 
      F
Been leanin on the promise
     G
That you wont let me down



Chorus:

     Am        F
So I wont let go
   G       Dm
I wont let go
     Am        F
No I wont let go
G
I wont let go if you don't



Bridge:


Am     F
G      Dm

Am     F
G      Dm

     F
Been holdin on so long now
       Em
In the middle of this drought 
      F
Been leanin on the promise
     G
That you wont let me down



Chorus:

     Am        F
So I wont let go
   G           Dm
I wont I won't let you go
     Am        F
No I wont let go
G              Am
I wont I won't let go



     Am        F
So I wont let go
   G       Dm
I wont let go
     Am        F
No I wont let go
G
I wont let go if you don't





These are the basic Chords but if you want to play the verse like on the cd it goes like this



Tabbed without capo

e|--------------------------------------------------------|
B|--------------------------------------------------------|
G|--------------------------------------------------------|
D|---9--9--9--9------------------7--7--7--7---------------|
A|---------------10--10--10--10--------------7--7--7--7---|
E|--------------------------------------------------------|


and the short intro goes like this:

e|------------------------------------|
B|------------------------------------|
G|------------------------------------|
D|----------7--9--7--9----9--9--9--9--|
A|--7--7h9----------------------------|
E|------------------------------------|    

Added On December 16th, 2013

SHARE

Comments

blog comments powered by Disqus

ADVERTISEMENT