Andy Mckee Tabs

For My Father Intro

2 versions

TAB

            This is a VERY broken down part of the song. It's not hard, and it sounds nice. In time
this amazing song will be completed. I know the bass parts on there. Anyone who does
it ahould tell me and I'll add it, or make a better tab than this one. It's my first, 
it sounds pretty good. Just withouth the cooler lower parts to the song.

Tuning- Standard
/ - Slide
h - Hammeron

-------0-0-1-3-3-----0-0-1-3-5-3---------5-3---------|
-4/8/5---------------------------1-3-3-1-----1-3-3-1-|
-----------------------------------------------------|
-----------------------------------------------------|
-----------------------------------------------------|
-----------------------------------------------------|

-------0-1-0---------0-0-h1-0---------0-1-3---------|
-1-1-3-------3-1-1-3----------3-1-1-3---------------|
----------------------------------------------------|
----------------------------------------------------|
----------------------------------------------------|
----------------------------------------------------|    

Added On December 16th, 2013

SHARE

Comments

blog comments powered by Disqus

VERSIONS

ADVERTISEMENT