Angelspit Tabs

Ditch The Rest

1 versions

TAB

            -------------------------------------------------------------------------------
                             Angelspit - "Ditch the Rest"
-------------------------------------------------------------------------------
Tabbed by:Joe
E-mail:joeghartman@verizon.net

Tuning: Drop C

I use very heavy distortion
Verse:
D|----------------------------------------------------------------------------|
A|----------------------------------------------------------------------------|
F|----------------------------------------------------------------------------|
C|----------------------------------------------------------------------------|
G|-0-0-0-6--------------------------------------------------------------------|
C|-0-0-0-6--------------------------------------------------------------------|

Pre-Chorus
D|----------------------------------------------------------------------------|
A|----------------------------------------------------------------------------|
F|----------------------------------------------------------------------------|
C|--33333333--6666---10 10 10 10----------------------------------------------|
G|--33333333--6666---10 10 10 10----------------------------------------------|
C|--33333333--6666---10 10 10 10----------------------------------------------|

Chorus:
D|----------------------------------------------------------------------------|
A|----------------------------------------------------------------------------|
F|----------------------------------------------------------------------------|
C|--0---3---6-----------------------------------------------------------------|
G|--0---3---6-----------------------------------------------------------------|
C|--0---3---6-----------------------------------------------------------------|

************************************

| /   slide up
| \   slide down
| h   hammer-on
| p   pull-off
| ~   vibrato
| +   harmonic
| x   Mute note
| b   Bend
| pb  Pre-bend
| br  Bend release
| pbr Pre-bend release
| brb Bend release bend

************************************    

Added On December 16th, 2013

SHARE

Comments

blog comments powered by Disqus

ADVERTISEMENT