Angus And Julia Stone Tabs

Mango Tree

3 versions

TAB

            Mango Tree Tab by Angus And Julia Stone


Angus and Julia Stone
Mango Tree
Chocolate and Cigarettes EP

Intro
    G                    Em7
e|------0---------0---------0---------0--------------------------------| 
B|------3-3-------3-3-------3-3-------3-3------------------------------| 
G|----------0---------0---------0---------0----------------------------| 
D|---------------------------------------------------------------------| 
A|---------------------------------------------------------------------| 
E|--3-3--------3-3-------0-0-------0-0---------------------------------| 

G
I wish I had a mango tree
Em7
In my backyard 
G
With you standing next to me
Em7
Take the picture
G
From her lips I heard her say
Em7
Can I have you
G
Caught up on what to say
             Em7
I said you do

Chorus
    I said you do...       I said you do...  
e|---0----0----0----0-------0----0----0----0----------------------------| 
B|---3----3----3----3-------3----3----3----3----------------------------| 
G|----------------------------------------------------------------------| 
D|----------------------------------------------------------------------| 
A|--3--3-2--2--------------3--3-0--0------------------------------------| 
E|------------3--3-3-----3-----------3--3-3-----------------------------| 



Through my eyes I can see
A shooting star
Weaving its way across the sea
Somewhere from Mars
Cause down the street we will run
Scatch our names in the path
Young and free, in the sun
Wheels upon the tar
I said you do

I said you do
I said you do
I said you do
I said you do

solo

    G                                    Em7
e|--7-5-3----3p0-------------------------7h8--0-3-5-5s7-5-3h5p3--------| 
B|---------------3p0---------------------------------------------------|
G|-------------------2p0-----------2-----------------------------------| 
D|-----------------------2p0--0h2--------------------------------------| 
A|---------------------------------------------------------------------| 
E|---------------------------------------------------------------------| 

    G                                    Em7 
e|--7-5-3----3p0-------------------------7h8--0-3-5-5s7-5-3h5p3--------| 
B|---------------3p0---------------------------------------------------| 
G|-------------------2p0-----------2-----------------------------------| 
D|-----------------------2p0--0h2--------------------------------------| 
A|---------------------------------------------------------------------| 
E|---------------------------------------------------------------------| 

   Chorus played over
e|-2-2h3---------2-2h3----------2-2h3----------------------------------| 
B|--------0-0h1---------1-1h3----------1-3--3--------------------------| 
G|---------------------------------------------0-----------------------| 
D|---------------------------------------------------------------------| 
A|---------------------------------------------------------------------| 
E|---------------------------------------------------------------------| 


I wish I had a mango tree
In my backyard 
With you standing next to me
Take the picture
From her lips I heard her say
Can I have you
Caught up on what to say
I said you do

I said you do
I said you do
I said you do
I said you do

G Em7

http://www.angusandjuliastone.com/v106alpha.htm    

Added On December 4th, 2013

SHARE

Comments

blog comments powered by Disqus

VERSIONS

ADVERTISEMENT