Angus And Julia Stone Tabs

The Wedding Song

2 versions

TAB

            -------------------------------------------------------------------------------
			     THE WEDDING SONG - Angus and Julia Stone
-------------------------------------------------------------------------------
Tabbed by: Rob
Email: rob-f-123@hotmail.co.uk

Tuning: Standard

This is my first tab, it all sounds right to me so I hope it is :S
Its not on any album but you can get the live track from iTunes

INTRO

e|-----------|-----------|-----------|-----------|
B|------1----|------1----|------1----|------1----|
G|------0----|------0----|------2----|------0h2--|
D|-----------|-----------|-----------|-----------|
A|-3-------3-|-2-------2-|-0---------|-0---------|
E|-----------|-----------|-----------|-----------|

e|-----------|-----------|-----------|------x----|
B|------1----|------1----|------1----|------x--1-|
G|------2----|------0----|------0----|------x--0-|
D|-3-------3-|-2-------2-|-0-------0-|------x----|
A|-----------|-----------|-----------|------x----|
E|-----------|-----------|-----------|-3----x----|

HARMONICA SOLO 1

e|-----------|-----------|-----------|-----------|
B|------1----|------1----|------1----|------1----|
G|------0----|------0----|------2----|------2----|
D|-----------|-----------|-----------|-----------|
A|-3-------3-|-2-------2-|-0---------|-0---------|
E|-----------|-----------|-----------|-----------|

e|-----------|-----------|-----------|------x----|
B|------1----|------1----|------1----|------x--1-|
G|------2----|------0----|------0----|------x--0-|
D|-3-------3-|-2-------2-|-0-------0-|------x----|
A|-----------|-----------|-----------|------x----|
E|-----------|-----------|-----------|-3----x----|

e|-----------|-----------|-----------|-----------|
B|------1----|------1----|------1----|------1----|
G|------0----|------0----|------2----|------2----|
D|-----------|-----------|-----------|-----------|
A|-3-------3-|-2-------2-|-0---------|-0---------|
E|-----------|-----------|-----------|-----------|

e|-----------|-----------|-----------|-----------|
B|------1----|------1----|------1----|-----------|
G|------2----|------0----|------0----|-----------|
D|-3-------3-|-2-------2-|-0-------0-|-----------|
A|-----------|-----------|-----------|-----------|
E|-----------|-----------|-----------|-3---------|

VERSE 1

e||-----------|-----------|-----------|-----------|
B||--------1--|------1----|------1----|------1----|
G||o-------0--|------0----|------2----|------2----|
D||o----------|-----------|-----------|-----------|
A||---3-------|-2---------|-0---------|-0---------|
E||-----------|-----------|-----------|-----------|

e|-----------|-----------|-----------|-----------||
B|------1----|------1----|------1----|-----------||
G|------2----|------0----|------0----|----------o|| x2
D|-3---------|-2---------|-0---------|----------o|| 
A|-----------|-----------|-----------|-----------||
E|-----------|-----------|-----------|-3---------||

PRE CHORUS

e||-----------|-----------|-----------|-----------|
B||--------1--|------1----|------3----|------3----|
G||o-------0--|------0----|------0----|------0----|
D||o----------|-----------|-----------|-----------|
A||---3-------|-3---------|-----------|-----------|
E||-----------|-----------|-3---------|-3---------|

e|-----------|-----------|-----------|-----------||
B|------1----|------1----|-----------|-----------||
G|------2----|------2----|-7----5----|-4----2---o|| x2
D|-3---------|-3---------|-----------|----------o||
A|-----------|-----------|-----------|-----------||
E|-----------|-----------|-----------|-----------||

CHORUS

e|-----------|-----------|-----------|-----------|
B|--------1--|------1----|------1----|------1----|
G|--------0--|------0----|------2----|------2----|
D|-----------|-----------|-----------|-----------|
A|---3-------|-2---------|-0---------|-0---------|
E|-----------|-----------|-----------|-----------|

e|-----------|-----------|-----------|-----------|
B|------1----|------1----|------1----|-----------|
G|------2----|------0----|------0----|-----------|
D|-3---------|-2---------|-0---------|-----------|
A|-----------|-----------|-----------|-----------|
E|-----------|-----------|-----------|-3---------|

e|-----------|-----------|-----------|-----------|
B|------(1)--|----(1)----|----(1)----|----(1)----|
G|------(0)--|----(0)----|----(2)----|----(2)----|
D|-----------|-----------|-----------|-----------|
A|---3-------|-2---------|-0---------|-0---------|
E|-----------|-----------|-----------|-----------|

e|-----------|-----------|-----------|-----------|
B|----(1)----|----(1)----|----(1)----|-----------|
G|----(2)----|----(0)----|----(0)----|-----------|
D|-3---------|-2---------|-0---------|-----------|
A|-----------|-----------|-----------|-----------|
E|-----------|-----------|-----------|-3---------|

HARMONICA SOLO 2

e|-----------|-----------|-----------|-----------|
B|------1----|------1----|------1----|------1----|
G|------0----|------0----|------2----|------2----|
D|-----------|-----------|-----------|-----------|
A|-3-------3-|-2-------2-|-0---------|-0-------0-|
E|-----------|-----------|-----------|-----------|

e|-----------|-----------|-----------|-----------|
B|------1----|------1----|------1----|------1----|
G|------2----|------0----|------0----|------0----|
D|-3-------3-|-2-------2-|-0-------0-|-----------|
A|-----------|-----------|-----------|---------0-|
E|-----------|-----------|-----------|-3---------|

e|-----------|-----------|-----------|-----------|
B|------1----|------1----|------1----|------1----|
G|------0----|------0----|------2----|------2----|
D|-----------|-----------|-----------|-----------|
A|-3-------3-|-2-------2-|-0---------|-0-------0-|
E|-----------|-----------|-----------|-----------|

e|-----------|-----------|-----------|-----------|
B|------1----|------1----|------1----|-----------|
G|------2----|------0----|------0----|-----------|
D|-3-------3-|-2-------2-|-0-------0-|-----------|
A|-----------|-----------|-----------|-----------|
E|-----------|-----------|-----------|-3---------|

MIDDLE 8

e|-----------|-----------|-----------|-----------|
B|--------1--|------1----|------1----|------1----|
G|--------2--|------2----|------2----|------2----|
D|-----------|-----------|-3---------|-3---------|
A|---0-------|-0---------|-----------|-----------|
E|-----------|-----------|-----------|-----------|

e|-----------|-----------|-----------|-----------|
B|------1----|-1---------|-----------|-----------|
G|------0----|-0---------|-----------|-----------|
D|-2---------|-----------|-----------|-----------|
A|-----------|-----------|-----------|-----------|
E|-----------|-----------|-3---------|-----------|

e|-----------|-----------|-----------|-----------|
B|--------1--|------1----|------1----|------1----|
G|--------2--|------2----|------2----|------2----|
D|-----------|-----------|-3---------|-3---------|
A|---0-------|-0---------|-----------|-----------|
E|-----------|-----------|-----------|-----------|

e|-----------|-----------|-----------|------x----|
B|------1----|-1---------|-----------|------x--1-|
G|------0----|-0---------|-----------|------x--0-|
D|-2---------|-----------|-----------|------x----|
A|-----------|-----------|-----------|------x----|
E|-----------|-----------|-3---------|------x----|

CHORUS

e|-----------|-----------|-----------|-----------|
B|--------1--|------1----|------1----|------1----|
G--------0--|------0----|------2----|------2----|
D|-----------|-----------|-----------|-----------|
A|---3-------|-2---------|-0---------|-0---------|
E|-----------|-----------|-----------|-----------|

e|-----------|-----------|-----------|-----------|
B|------1----|------1----|------1----|-----------|
G|------2----|------0----|------0----|-----------|
D|-3---------|-2---------|-0---------|-----------|
A|-----------|-----------|-----------|-----------|
E|-----------|-----------|-----------|-3---------|

e|-----------|-----------|-----------|-----------|
B|------1----|----1------|----1------|----1------|
G|------0----|----0------|----2------|----2------|
D|-----------|-----------|-----------|-----------|
A|---3-------|-2---------|-0---------|-0---------|
E|-----------|-----------|-----------|-----------|

e|-----------|-----------|-----------|-----------|-----------|
B|----(1)----|----(1)----|----(1)----|-----------|-----------|
G|----(2)----|----(0)----|----(0)----|-----------|-----------|
D|-3---------|-2---------|-0---------|-----------|-----------|
A|-----------|-----------|-----------|-----------|-3---------|
E|-----------|-----------|-----------|-3---------|-----------|

Enjoy!!
Rob

| /  slide up
| \  slide down
| h  hammer-on
| p  pull-off
| ~  vibrato
| +  harmonic
| x  Mute note
===============================================================================    

Added On December 16th, 2013

SHARE

Comments

blog comments powered by Disqus

VERSIONS

ADVERTISEMENT