Ani Difranco Tabs

Anticipate

1 versions

TAB

            Ani DiFranco
Anticipate
Standard Tuning

Intro/Verse

E-------------------------------------------------------------------------|
B-----------0-----------------0---------------0--------------0------------|
G-----------0-----------------0---------------0--------------0------------|
D-----------9----------------12---------------7--------------9------------|
A-----------9----------------12---------------7--------------9------------|
E-7p0-0-7-7-7----7p0-0-10-10-10----10p0-0-5-5-5----5p0-0-7-7-7------------|


Chorus

E-------------------------------------------------------------------------|
B-----------0--------------0--------------0------------0------------------|
G-----------0--------------0--------------0------------0------------------|
D-----------5--------------7--------------2------------2------------------|
A-----------5--------------7--------------2------------2------------------|
E-7p0-0-3-3-3----3p0-0-5-5-5----5p0-0-0-0-0----0-0-0-0-0------------------|


p=pull off

It also sounds just fine without the open G and B string.
Listen to the song to find the rythm.    

Added On December 16th, 2013

SHARE

Comments

blog comments powered by Disqus

ADVERTISEMENT