Ani Difranco Tabs

Gods Country

1 versions

TAB

            Tuning: DADGBE


	capo 4th fret

The Verses:

E-----------0-----0-----0--|
B-----0-----1-----3-----0--|
G-----0-----0-----0-----0--|     play three times
D-----5-----2-----4-----2--|
A-----5-----3-----5-----2--|
D-----5-----------------2--|

E-----0-----0-----3--|
B-----0-----1-----3--|
G-----0-----0-----0--|    play once
D-----5-----2-----4--|
A-----5-----3-----5--|
D-----5--------------|

The above are the chord configs. for this song.  This song is
all in how you strum/ pick it, so you have to listen to how she does it.
Whenever she changes chords, she hammers from the open strings onto
the lower notes of the chord she's changing to.  Listen to the song
and you'll understand.

The "Bridge"

E-----0-----0-----0--------|
B-----0-----1-----3-----0--|
G-----0-----0-----2-----2--|
D-----7-----2-----0-----0--|
A-----7-----3-----0-----0--|
D-----7--------------------|

Again, you have to listen to it to understand how to play it!    

Added On December 16th, 2013

SHARE

Comments

blog comments powered by Disqus

ADVERTISEMENT