Ani Difranco Tabs

Shameless

1 versions

TAB

            Tuning: E,A,D,G,A,D
* the open D is cut so short that often it’s completely muted     

Intro:

--------|
--------|
-0------|
-0------|
-x------|
-2b3----|

Verse riff:
                *
|---------------0-----------------|
|---------------------------------|
|---------------------------------|
|---------------------------------| repeated
|-----7-7h8-----------------------|
|0----- ------------0-0---2b3-----|

Chorus chords:

0--|0------------0-------------|0------|
3/-|10-----------9-------------|3------|
0--|0------------0-------------|0------|
0--|0------------0-------------|0-----|
X--|x------------x-------------|x-----|
3/-|10-----------10------------|3-----|
      We’re in a room without a door
         And I am sure without a doubt
They’re gonna wanna know how we got in here

|0-----------------------0-------|
|0-----------------------3-------|
|0-----------------------0-------|
|2-----------------------0-------|
|2-----------------------3-------|
|0-------------------------------|
 know how we plan to get out

(0)----------(0)-----(0)----------(0)---|
(0)----------(0)-----(0)----------(0)---|
|0h2----------0-------0h2----------0----|
|0h2----------0-------0h2----------0----|
|0------------x-------0------------x----|
|-----------0h3--------------------0h3--|
 butt ‘cause I covet another man’s wife    

Added On December 16th, 2013

SHARE

Comments

blog comments powered by Disqus

ADVERTISEMENT