Anna Ternheim Tabs

Ill Follow You Tonight

1 versions

TAB

            Ill Follow You Tonight Tab by Anna Ternheim


http://www.swedetab.se/visaTab.php?id=1278

Capo: 2nd fret
Tuning: standard
Tabbed by: Swedetab


[INTRO]
    D?                       A/C#
-|--------------------------------0------------------------------------|
-|------0------------------------------2-------------------------------|
-|----------0------------------2---------2----2-----2------------------|
-|----7-------7----7--------------------------------0------------------|
-|--5-----5------5---5-0-----4------4-------4----4---------------------|
-|---------------------------------------------------------------------|
   C             Cmaj7         Em            G
-|---------------------------------------------------------------------|
-|-----1-------------0--------------0--------1---0---------------------|
-|---------0--------------0----0--------0-------------0----------------|
-|---2-------2-----2--------2-----2-------0----0--------0--------------|
-|-3-----3-------3------3----------------------------------------------|
-|-----------------------------0------0------3------3------------------|
    Asus2/C#               Cmaj7                  C
-|---------------------------------------------------------------------|
-|------0----------------------0------------------1---3----------------|
-|--2-------2--------------0--------0---------------------0------------|
-|----2-------2----2---2-----2--------2----2---2----2-------2---2---0--|
-|--4-----4------4---4-----3------3------3---3----3-----3-----3---3----|
-|---------------------------------------------------------------------|

[VERS]
    D?                       A/C#
-|---------------------------------------0-------------0---------------|
-|------0------------0------------------------2------------------------|
-|----------0------------0-------------2--------2----2-----------------|
-|----7-------7----7-----------------------------------------0---------|
-|--5-----5------5-----5-----0-------4------4------4------4------------|
-|---------------------------------------------------------------------|
      Caught by, what comes by
   C             Cmaj7           Em              G
-|---------------------------------------------------------------------|
-|-----1-------------0----------------0----------1---0-----------------|
-|---------0--------------0------0--------0---------------0------------|
-|---2-------2-----2--------0-------2-------0------0--------0----------|
-|-3-----3-------3------3----------------------------------------------|
-|-------------------------------0------0--------3------3--------------|
   Stand alone without a fare chance tonight...


[STICK]
   Bm                           C
-|---------------------------------------------------------------------|
-|-----3------------3---------------1--------------1-------------------|
-|---------4------------4---------------0--------------0---------------|
-|---4-------4----4--------0------2-------2------2-------2-------------|
-|-2-----2------2-----2---------3-----3--------3-----3-----------------|
-|---------------------------------------------------------------------|
        Lying lips won't say, my eyes give me away
    Dadd4                        C
-|---------------------------------------------------------------------|
-|------3--------------3-------------1--------------1------------------|
-|----------0--------------0-------------0--------------0--------------|
-|----4-------4------4--------0----2-------2------2-------2------------|
-|--5-----5--------5-----5-------3-----3--------3-----3----------------|
-|---------------------------------------------------------------------|
          Won't you please turn out the light
   Dadd4                               Em              G
-|---------------------------------------------------------------------|
-|------3--------------3-------------------0----------------0----------|
-|---------0--------------0------------0--------0------0---------0-----|
-|---4-------4------4--------0-----------2--------2-------0--------0---|
-|-5-----5--------5-----5----------------------------------------------|
-|-------------------------------------0------0--------3-------3-------|
             And I'll follow you tonight


 [UTRO] (efter sista sticket).
   Dadd4
-|---------------------------------------------------------------------|
-|------3--------------3--------------3--------------3-----------------|
-|---------0--------------0--------------0--------------0--------------|
-|---4-------4------4--------4-----4-------4------4--------0-----------|
-|-5-----5--------5-----5--------5-----5--------5-----5----------------|
-|---------------------------------------------------------------------|
                                                And I'll follow you...
   Asus2/C#                   Cmaj7          Em           G
-|---------------------------------------------------------------------|
-|-----0------------0-------------0--------------0--------1---0--------|
-|---------2------------2-----0-------0------0-------0------------0----|
-|---2-------2----2-------2-----2-------0------2-------0----0-------0--|
-|-4-----4------4-----4-------3-----3----------------------------------|
-|-------------------------------------------0-----0------3-----0------|
 ...tonight
   Asus2/C#                   Cmaj7          Em           G
-|---------------------------------------------------------------------|
-|-----0--------------------------0--------------0--------1---0--------|
-|-2-------2------------------0-------0------0-------0------------0----|
-|---2-------2----2-----2-------2-------0------2-------0----0-------0--|
-|-4-----4------4----4--------3-----3----------------------------------|
-|-------------------------------------------0-----0------3-----0------|

   Asus2/C#                   Cmaj7
-|---------------------------------------------------------------------|
-|-----0--------------------------0------------------------------------|
-|-2-------2------------------0-------0--------------------------------|
-|---2-------2----2-----2-------2-------2----2---2---------------------|
-|-4-----4------4----4--------3-----3------3---3-----------------------|
-|---------------------------------------------------------------------|

   Cadd9
-|---------------------------------------------------------------------|
-|------3--------------------------------------------------------------|
-|-----------0---------------------------------------------------------|
-|----2--------2----2----2---------------------------------------------|
-|--3------3------3----3-----3-----------------------------------------|
-|---------------------------------------------------------------------|


VERS
Caught by, what comes by, stand alone without a fare chance tonight
Here again, by your side when, they turn on all the lights
yes I'll follow you tonight

VERS 2
Using white lies if we have to, it's easy to forgive and forget it all tomorrow
I just pass by you, pass by me, my last way out and worst misstake tonight

STICK
Lying lips won't say, my eyes give me away, won't you please turn out the light
And I follow you tonight
I follow you tonight

STICK 2
the worst misstake to make, or just the kind of promise you simply have to break
so please turn out the light. And I follow you...

VERS 3
To any doorstep, any hallway, with hope of finding more, not feel shallow not get bored
Find it useless, feeling meaningless, and just as low as I was high the night before.

STICK 3
the worst misstake to make, or just the kind of promise you simply have to break
so please turn out the light, and I follow you tonight.    

Added On December 4th, 2013

SHARE

Comments

blog comments powered by Disqus

ADVERTISEMENT