Anti-Flag Tabs

Hymn For The Dead

4 versions

TAB

            Hymn For The Dead Tab by Anti-flag


Hymn For the Dead
Anti-Flag
Tabber: Richard Offpunk Case

This is one of the coolest Anti-Flag songs ever

Intro

e----------------------------------------------|
B----------------------------------------------|
G----------1212121212121212-777777777----------|
D-99999999-1212121212121212-777777777-77777777-|
A-99999999-1010101010101010-555555555-77777777-|
E-77777777----------------------------55555555-|

e------------------------------------------------|
B------------------------------------------------|
G-7-6h7-777-6h7-6-7-6----7-6h7-777-6h7-777-7-6/9-|
D---------------------99-------------------------|
A------------------------------------------------|
E------------------------------------------------|

e-------------------------------------------|
B-------------------------------------------|
G-7-6h7-777-6h7-6-7-6----6h7-7-6-7-6-7-6----|
D---------------------99-----------------7--|v
A-------------------------------------------|
E-------------------------------------------|

Verse

e-------------------------------------|
B-------------------------------------|
G-----------------12-12-12-12-7-7-7-7-|
D-9-9-9-9-9-9-9-9-12-12-12-12-7-7-7-7-|
A-9-9-9-9-9-9-9-9-10-10-10-10-5-5-5-5-|
E-7-7-7-7-7-7-7-7---------------------|

"Witnessed his life violently erased"

e-33333333-----------------33333333-5-5-|
B-33333333-----------------33333333-5-5-|
G-44444444-----------------44444444-6-6-|
D-55555555-9-9-9-9-9-9-9-9-55555555-7-7-|
A-55555555-9-9-9-9-9-9-9-9-55555555-7-7-|
E-33333333-7-7-7-7-7-7-7-7-33333333-5-5-|

Chorus

e-----------------------------------------------------|
B-----------------------------------------------------|
G----------12121212121212121212121212121212------9999-|
D-99999999-12121212121212121212121212121212-7777-9999-|
A-99999999-10101010101010101010101010101010-7777-7777-|
E-77777777----------------------------------5555------|

Bridge "Call out tyranny"

e-33333333-55555555
B-33333333-55555555
G-44444444-66666666
D-55555555-77777777          2X
A-55555555-77777777
E-33333333-55555555

There's a real quiet lead right here

e-----------------------|
B-----------------------|
G-----------------------|
D-7-6-7777-6-7777-7-6-9-|
A-----------------------|
E-----------------------|

Clean part

e-------------------------------------------------------|
B---------7---------------------------------------------|
G-------------------9---------7-6-----------7-----------|
D-----9---------9---------9-------9-7-----9-------------|          2X
A---9---9-----9---9-----9---9-----------9---------------|
E-7---------7---------7---------------7-----------------|

After playing clean part once

e---------|
B---------|
G-----7---|
D-9-5-7-7-|
A-9-5-5-7-|
E-7-3---5-|

Trumpet Part

e-------------------------------------|
B-------------------------------------|
G-------------------77777777-77777777-|
D-99999999-55555555-77777777-77777777-|
A-99999999-55555555-55555555-77777777-|
E-77777777-33333333----------55555555-|

  -------- -------- -------- -------- Palm Mute

e-----------------------------------------|
B-----------------------------------------|
G-7777-6666-7777-6666-7777-6666-7777-6666-|
D-----------------------------------------|
A-----------------------------------------|
E-----------------------------------------|

The rest of the bridge is the same chords, just a different rhythm. I remain confident 
be able to figure it out for your self.

The song order

Intro
Verse
Chorus
Intro
Verse
Chorus
Bridge
Trumpet Bridge
Chorus 2X
Intro lead during second Chorus
Bass outro

And this tiny litle lead at the end of the song

e------------------|
B------------------|
G-6-6h7-4----------|let ring
D------------------|
A------------------|
E------------------|

And thats it!    

Added On December 4th, 2013

SHARE

Comments

blog comments powered by Disqus

VERSIONS

ADVERTISEMENT