Anti-Flag Tabs

Stars And Stripes

3 versions

TAB

            Stars And Stripes Tab by Anti-flag


Intro:
starts with some bass
Gtr.1
e|--------------------------------|
B|--------------------------------|
G|-6------------8/6------------6/8|
D|-x------------x/x------------x/x|
A|-4------------6/4------------4/6|
E|--------------------------------|

e|--------------------------------|
B|--------------------------------|
G|/9---------------8/6------------|
D|/x---------------x/x------------|
A|/7---------------6/4------------|
E|--------------------------------|

Gtr.2
e|--------------------------------|
B|--------------------------------|
G|-6-6-6-6-2-2-2-2----------------|
D|-6-6-6-6-2-2-2-2-2-2-2-2-4-4-4-4|
A|-4-4-4-4-0-0-0-0-2-2-2-2-4-4-4-4|x2
E|-----------------0-0-0-0-2-2-2-2|
P.M.__________________________________
Second time end Gtr.2 with a pickslide.

Gtr.1
e|-----------------------------------------|
B|-----------------------------------------|
G|-6-6-6/8-9-9-9/11-13-13-13-13-11/13/11---|
D|-x-x-x/x-x-x-x/x--x--x--x--x--x/-x/-x----|
A|-4-4-4/6-7-7-7/9--11-11-11-11-9/-11/9----|
E|-----------------------------------------|

e|----------------------------------------|
B|----------------------------------------|
G|-6-6-6/8-9-9-9/11-13-13-13-13-11/9/8----|
D|-x-x-x/x-x-x-x/x--x--x--x--x--x/-x/x----|
A|-4-4-4/6-7-7-7/9--11-11-11-11-9/-7/6----|
E|----------------------------------------|

Gtr.2
e|--------------------------------|
B|--------------------------------|
G|-6-6-6-6-2-2-2-2----------------|
D|-6-6-6-6-2-2-2-2-2-2-2-2-4-4-4-4|
A|-4-4-4-4-0-0-0-0-2-2-2-2-4-4-4-4|x2
E|-----------------0-0-0-0-2-2-2-2|

Verse:
Gtr.1
e|------------------------------|
B|------------------------------|
G|-6-2-2--6-2-2--6-2-2----------|
D|-6-2-2--6-2-2--6-2-2-pickslide|
A|-4-0-0--4-0-0--4-0-0----------|
E|------------------------------|

e|------------------------------|
B|------------------------------|
G|-6-2-2--6-2-2--6-2-2--6-2-2---|
D|-6-2-2--6-2-2--6-2-2--6-2-2---|x2
A|-4-0-0--4-0-0--4-0-0--4-0-0---|
E|------------------------------|

Gtr.2
e|------------------------------|
B|------------------------------|
G|-6-2-2--6-2-2--6-2-2--6-2-2---|
D|-6-2-2--6-2-2--6-2-2--6-2-2---|x3
A|-4-0-0--4-0-0--4-0-0--4-0-0---|
E|------------------------------|

Chorus:

Gtr.1+2
e|-------------------------------------------|
B|-------------------------------------------|
G|-6-6-6-6-6-6-6-6-6-6-6-6-6-6-6-6-6-6-6-6-6-|
D|-6-6-6-6-6-6-6-6-6-6-6-6-6-6-6-6-6-6-6-6-6-|
A|-4-4-4-4-4-4-4-4-4-4-4-4-4-4-4-4-4-4-4-4-4-|
P.M________________  ___  ____  ____  ____

e|----------------------------------|
B|----------------------------------|
G|-6-6-6-6-2-2-2-2------------------|
D|-6-6-6-6-2-2-2-2-2-2-2-2-4-4-4-4--|
A|-4-4-4-4-0-0-0-0-2-2-2-2-4-4-4-4--|x2
E|-----------------0-0-0-0-2-2-2-2--|

Verse:

Gtr.1+2

e|------------------------------|
B|------------------------------|
G|-6-2-2--6-2-2--6-2-2--6-2-2---|
D|-6-2-2--6-2-2--6-2-2--6-2-2---|x3
A|-4-0-0--4-0-0--4-0-0--4-0-0---|
E|------------------------------|

Chorus:

Gtr.1+2
e|-------------------------------------------|
B|-------------------------------------------|
G|-6-6-6-6-6-6-6-6-6-6-6-6-6-6-6-6-6-6-6-6-6-|
D|-6-6-6-6-6-6-6-6-6-6-6-6-6-6-6-6-6-6-6-6-6-|
A|-4-4-4-4-4-4-4-4-4-4-4-4-4-4-4-4-4-4-4-4-4-|
P.M________________  ___  ____  ____  ____

e|--------------------------------|
B|--------------------------------|
G|-6-6-6-6-2-2-2-2----------------|
D|-6-6-6-6-2-2-2-2-2-2-2-2-4-4-4-4|
A|-4-4-4-4-0-0-0-0-2-2-2-2-4-4-4-4|x4
E|-----------------0-0-0-0-2-2-2-2|


Bridge:
Gtr.1+2
e|---------------------------------|
B|---------------------------------|
G|-4-4-4-4-6-6-6-6-2-2-2-2---------|x2
D|-4-4-4-4-6-6-6-6-2-2-2-2-2-2-2-2-|
A|-2-2-2-2-4-4-4-4-0-0-0-0-2-2-2-2-|
E|-------------------------0-0-0-0-|

e|----------------------------------------|
B|----------------------------------------|
G|-4-4-4-4-6-6-6-6-2-2-2-2----------------|x1
D|-4-4-4-4-6-6-6-6-2-2-2-2-2-2-2-2--7---9-|
A|-2-2-2-2-4-4-4-4-0-0-0-0-2-2-2-2--7---9-|
E|-------------------------0-0-0-0--5---7-|
P.M._______________________________

Gtr.1

e|------------|
B|------------|
G|-11-11-11-11|
D|------------|
A|------------|
E|------------|

Chorus:

Gtr.1+2

e|----------------------------------|
B|----------------------------------|
G|-6-6-6-6-2-2-2-2------------------|
D|-6-6-6-6-2-2-2-2-2-2-2-2-4-4-4-4--|
A|-4-4-4-4-0-0-0-0-2-2-2-2-4-4-4-4--|x4
E|-----------------0-0-0-0-2-2-2-2--|

Bridge 2:

Gtr.1
e|-------------------------------------------------------------------------|
B|-------6-----------------------------------------------------------------|
G|-6-------6-----6-6--6--2-2--2------------------6-6-6-6--2-2-2-2-----11-11|
D|-6---------6---6-6--6--2-2--2--2-2--2--4-4--4--6-6-6-6--2-2-2-2--2--11-11|
A|-4-------------4-4--4--0-0--0--2-2--2--4-4--4--4-4-4-4--0-0-0-0--2--9--9-|
E|-------------------------------0-0--0--2-2--2--------------------0-------|
                                              P.M_______
e|-------------------------------------------------------------------------|
B|-------------------------------------------------------------------------|
G|---------------6-6--6--2-2--2------------------6-6-6-6--2-2-2-2-----11-11|
D|---------------6-6--6--2-2--2--2-2--2--4-4--4--6-6-6-6--2-2-2-2--2--11-11|
A|---------------4-4--4--0-0--0--2-2--2--4-4--4--4-4-4-4--0-0-0-0--2--9--9-|
E|-------------------------------0-0--0--2-2--2--------------------0-------|
                                              P.M.______

Chorus:

Gtr.1+2
e|---------------------------------|
B|---------------------------------|
G|-6-6-6-6-2-2-2-2-----------------|
D|-6-6-6-6-2-2-2-2-2-2-2-2-4-4-4-4-|
A|-4-4-4-4-0-0-0-0-2-2-2-2-4-4-4-4-|x4
E|-----------------0-0-0-0-2-2-2-2-|

e|---|
B|---|
G|-6-|
D|-6-|
A|-4-|
E|---|    

Added On December 4th, 2013

SHARE

Comments

blog comments powered by Disqus

VERSIONS

ADVERTISEMENT