Anti-Flag Tabs

Underground Network

2 versions

TAB

            Band:   Anti-Flag
Song:   Underground Network
Album:  Underground Network
Tabber: Frank Stevens

~ - Let Ring
b - Bend
* - Palm Mute
Note: I'm pretty sure this is 100% correct. It is better than the other tabs. Part of
tab is taken from 'tTabs. I'm not a good tabber though. At least it's better than the
tabs. It is played on standard tuning but it is played different from Justin Sane and 
But it sound close. Have fun playing this song and please rate this tab. THANKS!

Intro - Guitar 1
e|--------------------------------------------------|
B|--------3322--------3322--------3322--------3355--|
G|-----44----------44----------44----------44-------|
D|--------------------------------------------------| (x4)
A|--22----------22----------------------------------|
E|--------------------------33----------33----------|

Guitar 2                                 (x2)
e|--------------------|---------------------------------------------------| at the
B|--------------------|---------------------------------------------------| end of
G|-----4~-------------|-4-4-4444—-4-4-4444----------------------| the 2nd-|
D|--5~-4~---5---4—-7--|-4-4-4444—-4-4-4444—-5-5-5555—-5-5-5555------------| time,
A|--5~-2~---5---4—-7--|-2-2-2222—-2-2-2222--5-5-5555—-5-5-5555------------| slowly
E|--3~------3---2—-5--|---------------------3-3-3333—-3-3-3333------------| release
            *   *  *    * * ****  * * ****  * * ****  * * ****    palm mute.

Verse - Both guitars
e|------2~-------3~--------2~------3~----|
B|--------3~-------3~--------3~------3~--|
G|--4~-----------------4~----------------|
D|--4~-------5~--------4~--------5~------|
A|--2~-------5~--------2~--------5~------|
E|-----------3~------------------3~------|

Verse Part 2 - Guitar 1
e|---------------------------------------------------------------------|
B|-----------3322-----------3355------------3322-----------------------|
G|--44444--44-------------44-------44444--44------------------4~-------|
D|--44444----------55555-----------44444------------5---4--7—-4~-------|
A|--22222----------55555-----------22222------------5---4--7—-2~-------|
E|-----------------33333----------------------------3---2--5-----------|
                                                    *   *  *
Guitar 2
e|---------------------------------------------------------------------|
B|---------------------------------------------------------------------|
G|--44444--------------------------44444----------------------4~-------|
D|--44444----------55555-----------44444------------5---4--7—-4~-------|
A|--22222----------55555-----------22222------------5---4--7—-2~-------|
E|-----------------33333----------------------------3---2--5-----------|
                                                    *   *  *

Pre-Verse before verse 2 - Guitar 1
e|--------------------------------------------------|
B|--------3322--------3322--------3322--------3355--|
G|-----44----------44----------44----------44-------|
D|--------------------------------------------------| (x2)
A|--22----------22----------------------------------|
E|--------------------------33----------33----------|

 Guitar 2                                 (x2)
e|------------------------------------------|
B|------------------------------------------| at the end of
G|--4-4-4444—-4-4-4444----------------------| the 2nd time,
D|--4-4-4444—-4-4-4444—-5-5-5555—-5-5-5555--| slowly release
A|--2-2-2222—-2-2-2222--5-5-5555—-5-5-5555--| palm mute.
E|----------------------3-3-3333—-3-3-3333--|
    * * ****  * * ****  * * ****  * * ****

Verse 2 – Both guitars
e|------2~-------3~--------2~------3~----|
B|--------3~-------3~--------3~------3~--|
G|--4~-----------------4~----------------|
D|--4~-------5~--------4~--------5~------|
A|--2~-------5~--------2~--------5~------|
E|-----------3~------------------3~------|


Verse 2 Part 2 - Guitar 1
e|-------------------------------------------------------------------|
B|-----------3322-----------3355------------3322---------------------|
G|--44444--44-------------44-------44444--44-------------------------|
D|--44444----------55555-----------44444------------5---4--7—--------|
A|--22222----------55555-----------22222------------5---4--7—--------|
E|-----------------33333----------------------------3---2--5---------|
                                                    *   *  *

Guitar 2
e|-------------------------------------------------------------------|
B|-------------------------------------------------------------------|
G|--44444--------------------------44444-----------------------------|
D|--44444----------55555-----------44444------------5---4--7—--------|
A|--22222----------55555-----------22222------------5---4--7—--------|
E|-----------------33333----------------------------3---2--5---------|
                                                    *   *  *

Chorus Both guitars
e|------------|------------|------------|------------|
B|------------|------------|------------|------------|
G|--4---------|--4---------|--4---------|--4---------|
D|--4---5--4--|--4---5--4--|--4---5--4--|--4---5--4--|
A|--2---5--4--|--2---5--4--|--2---5--4--|--2---5--4--|
E|------3--2--|------3--2--|------3--2--|------3--2--|

Both guitars
e|----------(x2)-------------|------------|----------------------|
B|------------|--------------|------------|----------------------|
G|------------|--44-4--44-4--|------------|--44-4--44-4--44-4-4--|
D|--5--4-5-7--|--44-4--44-4--|--5--4-5-7--|--44-4—-44-4—-44-4-4--|
A|--5--4-5-7--|--22-2--22-2--|--5--4-5-7--|--22-2—-22-2—-22-2-2--|
E|--3--2-3-5--|--------------|--3—-2-3-5--|----------------------|

Guitar 2
e|------2~--------------------------|
B|--------0~3~------------------3~--|
G|--4~-------------4~-------4~0~----|
D|--4~-----------4~-----------------|
A|--2~---------------2~-------------|
E|----------------------------------|


Guitar 1 - Palm Mute for the whole thing before solo. Release
           palm mute slowly approaching the solo.
e|--------------------------------------------------|
B|--------3322--------3322--------3322--------3355--|
G|-----44----------44----------44----------44-------|
D|--------------------------------------------------|
A|--22----------22----------------------------------|
E|--------------------------33----------33----------|


Guitar 2 (Solo)
e|------------------------------------------------------|
B|----7-----7-----7-----7-----7---7---7---7---7---------|
G|---10b---10b---10b---10b---10b-10b-10b-10b-10b--------|
D|------------------------------------------------------|
A|------------------------------------------------------|
E|------------------------------------------------------|

e|------------------------------------------------------|
B|--------------------------------7---7---7-----10------|
G|-----11-7—9—6-7—9—7—6—9—7-6-------7---7---7------11---|
D|---9--------------------------------------------------|
A|------------------------------------------------------|
E|------------------------------------------------------|

e|----------------------------------------------------------------------|
B|--7-----7----7-----12----------------------------12-------------------|
G|--7--------7------------11--------11-----11--------11-7—9—------------|
D|----------------------------12--------12-------------------12-11-9~~--|
A|----------------------------------------------------------------------|
E|----------------------------------------------------------------------|

e|-----------77~----77~~---77~~---7~--7~------|
B|--------------------------------------------|(continuous picking of 7s)
G|--------------------------------------------|
D|----99~~------------------------------------|
A|--------------------------------------------|
E|--------------------------------------------|


Guitar 1 (rhythym over solo)
e|------------|------------|------------|------------|
B|------------|------------|------------|------------|
G|--4---------|--4---------|--4---------|--4---------|
D|--4---5--4--|--4---5--4--|--4---5--4--|--4---5--4--|
A|--2---5--4--|--2---5--4--|--2---5--4--|--2---5--4--|
E|------3--2--|------3--2--|------3--2--|------3--2--|


Guitar 1 - Palm mute
e|---------------------------------------------------|
B|---------------------------------------------------|
G|---------------------------------------------------|
D|--444444-4-4--444444-4-4---------------------------|
A|--222222-2-2--222222-2-2---555555-5-5—-555555-5-5--|
E|---------------------------333333-3-3--333333-3-3--|
    ****** * *  ****** * *   ****** * *  ****** * *

Palm Mute
e|----------------------------------------|
B|---------------------33333333-55555555--|
G|----------------------------------------|(not sure for this part)
D|----------------------------------------|
A|--222222222-----------------------------|(x2)
E|------------33333333--------------------|
    ********* ******** ******** ********

Last chorus - Guitar 1
e|------------|------------|------------|------------|
B|------------|------------|------------|------------|
G|--4---------|--4---------|--4---------|--4---------|
D|--4---5--4--|--4---5--4--|--4---5--4--|--4---5--4--|
A|--2---5--4--|--2---5--4--|--2---5--4--|--2---5--4--|
E|------3--2--|------3--2--|------3--2--|------3--2--|

Guitar 2
e|--7~------7~------7~------7~------7~------7~-------|
B|---------------------------------------------------|(CAN SLIGHTLY BEND
G|---------------------------------------------------| THE NOTE)
D|---------------------------------------------------|
A|---------------------------------------------------|
E|---------------------------------------------------|

Guitar 2 (Ending Solo)
e|--------------------------------------------------------|
B|--77------------------------88-77-----------------------|
G|----77-66-77-99-77-66------------99-77-99-77-66-77------|
D|-----------------------77-------------------------------|
A|--------------------------------------------------------|
E|--------------------------------------------------------|

                                                      (Tens)
e|--------------------------------------------77----99-1010--7--------|
B|--77--------------------------88-77-1010-88---1010------------------|
G|----77-66-77-99-77-66-----------------------------------------------|
D|-----------------------77-------------------------------------------|
A|--------------------------------------------------------------------|
E|--------------------------------------------------------------------|

Guitar 1
e|---------------------------------------------------|
B|---------------------------------------------------|
G|--444444-4-4--444444-4-4---------------------------|
D|--444444-4-4--444444-4-4---555555-5-5--555555-5-5--|
A|--222222-2-2--222222-2-2---555555-5-5—-555555-5-5--|
E|---------------------------333333-3-3--333333-3-3--|

end with this
e|------|
B|------|
G|--4---|
D|--4---|
A|--2---|
E|------|

End.
Please rate and comment on this tab. Thanks.
PEACE!    

Added On December 16th, 2013

SHARE

Comments

blog comments powered by Disqus

VERSIONS

ADVERTISEMENT