Arch Enemy Tabs

Anthem

3 versions

TAB

            Anthem Tab by Arch Enemy


Artist: Arch Enemy
Song: Anthem
Album: Anthems of Rebellion
Transcribed by: Jeff Isaacson
Guitar I

D||-15----14--14~---14--15--17--15--14--12--14----15--15~---------|
A||o--------------------------------------------------------------|
F||---------------------------------------------------------------|
C||---------------------------------------------------------------|
G||o--------------------------------------------------------------|
C||---------------------------------------------------------------|

D|--12----10--10~-------------13----12--12~~~------||
A|------------------------------------------------o||
F|-------------------------------------------------|| (3X)
C|-------------------------------------------------||
G|------------------------------------------------o||
C|-------------------------------------------------||



Guitar II

D|-10--12--14--15--14--15--14--15--17--15-14--14b15--15~~~------|
A|--------------------------------------------------------------|
F|--------------------------------------------------------------|
C|--------------------------------------------------------------|
G|--------------------------------------------------------------|
C|--------------------------------------------------------------|

D|-22-----20--19--20~~~------------17------15--14--15~~~---|
A|---------------------------------------------------------|
F|---------------------------------------------------------|
C|---------------------------------------------------------|
G|---------------------------------------------------------|
C|---------------------------------------------------------|



Both guitars end in...

D|--10----9--9~~~--10~----------||
A|------------------------------||
F|------------------------------||
C|------------------------------||
G|------------------------------||
C|------------------------------||


---------------- 
Key:            |
~     vibrato   |
b     bend      |
||o   repeat    |
---------------- 


There you go.

You'll have to piece the timing of the two guitars together yourself but its really simple    

Added On December 4th, 2013

SHARE

Comments

blog comments powered by Disqus

VERSIONS

ADVERTISEMENT