Arch Enemy Tabs

Shadow On The Wall

1 versions

TAB

            ARCH ENEMY - SHADOW ON THE WALL
From the Album WAR ETERNAL

Tabbed by: Tobbe 


Standard tuning EADGBe

Main riff

|--------------------------------------|-------------------------------------------------|
|--------------------------------------|-------------------------------------------------|
|--------------------------------------|-------------------------------------------------|
|--8\5-5-5-5--8-8/10--8\5-5-5-5--10----|--7\3-3-3-3--8-8/10--8\5-5-5-5--101010108--------|
|--6\3-3-3-3--6-6/8---6\3-3-3-3--8--8--|--5\1-1-1-1--6-6/8---6\3-3-3-3--8-8-8-8-6-10(8)--|
|-----------------------------------6--|------------------------------------------8--6~--|
       . .                . .                 . .                . .                 ph

Fill 1

|-------------|
|-------------|
|-------------|
|--5--3--3----|
|--3--1--0----|
|-------------|

Fill 2

|-------------------|
|-------------------|
|-------------------|
|--101010108--------|
|--8-8-8-8-6-10(8)--|
|------------8--6~--|
                ph

Solo

Gtr. 1                 x2
|-------------15-13-----|-------------15-13-15/18--|
|-/13-15-16---------15--|-/13-15-16----------------|
|-----------------------|--------------------------|
|-----------------------|--------------------------|
|-----------------------|--------------------------|
|-----------------------|--------------------------|

Gtr. 2                 x2
|-----------------------|--------------------------|
|-----------------------|--------------------------|
|-------------12-10-----|-------------12-10-12/15--|
|-/10-12-13---------12--|-/10-12-13----------------|
|-----------------------|--------------------------|
|-----------------------|--------------------------|    

Added On July 9th, 2014

SHARE

Comments

blog comments powered by Disqus

ADVERTISEMENT