Arctic Monkeys Tabs

Brian Storm

5 versions

TAB

            Brian Storm Tab by Arctic Monkeys


Arctic Monkeys - Brianstorm
tuning: standard

Intro - guitar1
e|----------------|
b|----------------|
g|----------------|
d|----------------|
a|----------------|
e|1111111111111111|

guitar2
e|-------|
b|-------|
g|-------|
d|33-33--|
a|--4--4-|
e|-------|

intro 2 - guitar1
e|-----------|
b|-----------|
g|-----------|
d|33--------5|
a|--4-3-4-67-|
e|-----4-----|

intro/verse
e|----------------------|
b|----------------------|
g|----------------------|
d|33--------53--------53|
a|--43-44-67--43-44-67--|
e|----------------------|

verse-guitar2 "brian, top marks for not trying..."
e|-------------------|
b|-------------------|
g|-------------------|
d|3---------3--------|
a|-43-44-67--43-44-67|
e|-------------------|

Bridge1 "see u later innovator"
e|------------------|
b|------------------|
g|------------------|
d|33--------5-------|
a|--43--467--43--467|
e|----4--------4----|

verse2 "some want to kiss..."
e|------------------|
b|------------------|
g|------------------|
d|3--------3--------|
a|-43-4467--43-4467-|
e|------------------|

bridge2 "i doubt its your style.."
e|---------------|
b|---------------|
g|---------------|
d|---------------|
a|3---33----43---|
e|-4-1---4-1--4-1|

bridge3 end of "oh"
e|-------------------|
b|-------------------|
g|-------------------|
d|-------------------|
a|--------44-33---44-|
e|11111-44-----44----|

intro - guitar1
e|---------|
b|---------|
g|---------|
d|---------|
a|---------|
e|11111111-|

guitar2
e|-------|
b|-------|
g|-------|
d|33-33--|
a|--4--4-|
e|-------|

DRUMS

verse3 - "thunder"
e|---------------------|
b|---------------------|
g|---------------------|
d|3--------53--------53|
a|-43-44-67--43-44-67--|
e|---------------------|

Do intro as the outro

END    

Added On December 16th, 2013

SHARE

Comments

blog comments powered by Disqus

VERSIONS

ADVERTISEMENT