Arctic Monkeys Tabs

D Is For Dangerous

4 versions

TAB

            ----------------------------------------------------------------------------
			     D is for dangerous - Arctic Monkeys           
----------------------------------------------------------------------------
Tabbed by: Liam Gladwin 
Email: liam_gladwin@hotmail.co.uk

Tuning:Standard


Fresh From the Monkeys New Album its D is for Dangerous.

Not perfectly in key and not a perfect tab but sounds rite to me. 

iv tabbed out the 4 riff's so all you need to do is listen to the track and decide what parts go where. 

chords used:
     C       D#      G        A#      G*      C*      F       F#      G#
e|---8-------6-------10-------6-------3-------3-------8-------9-------4----|
B|---8-------8-------12-------6-------3-------5-------10------11------4----|
G|---9-------8-------12-------7-------4-------5-------10------11------5----|
D|---10------8-------12-------8-------5-------5-------10------11------6----|
A|---10------6-------10-------8-------5-------3-------8-------9-------6----|
E|---8-------X-------X--------6-------3-------X-------X-------X-------4----|

Riff 1:

     C       D#  G       A# C      A#  G
e|---8-8-8---6---10-10---6--8-8-8--8---333---------------------------|
B|---8-8-8---8---12-12---6--8-8-8--8---333---------------------------|
G|---9-9-9---8---12-12---7--9-9-9--7---444---------------------------|
D|---101010--8---12-12---8--101010-8---555---------------------------|
A|---101010--6---10-10---8--101010-8---555---------------------------|
E|---8-8-8---X---X--X----6--8-8-8--6---333---------------------------|

Riff 2:

     F        A#C
e|---8-8-8-8--/6-/3--------------------------------------------------------|
B|---10101010-/8-/5--------------------------------------------------------|
G|---10101010-/8-/5--------------------------------------------------------|
D|---10101010-/8-/5--------------------------------------------------------|
A|---8-8-8-8--/6-/3--------------------------------------------------------|
E|---X-X-X-X--/X-/X--------------------------------------------------------|

Riff 3:

    C        F#
e|--8-8-8-8--9--9--9-------------------------------------------------------|
B|--8-8-8-8--11-11-11------------------------------------------------------|
G|--9-9-9-9--11-11-11------------------------------------------------------|
D|--10101010-11-11-11------------------------------------------------------|
A|--10101010-9--9--9-------------------------------------------------------|
E|--8-8-8-8--X--X--X-------------------------------------------------------|

Riff 4:

    C    D# A#     G#     G
e|--8-8--6--6-6-6--4-4-4--3------------------------------------------------|
B|--8-8--8--6-6-6--4-4-4--3------------------------------------------------|
G|--9-9--8--7-7-7--7-7-7--4------------------------------------------------|
D|--1010-8--8-8-8--6-6-6--5------------------------------------------------|
A|--1010-6--8-8-8--6-6-6--5------------------------------------------------|
E|--8-8--X--6-6-6--4-4-4--3------------------------------------------------|

Any questions or corrections please contact me and ill sort it rite out. 

Please rate and leave feedback.


| /  slide up
| \  slide down
| h  hammer-on
| p  pull-off
| ~  vibrato
| +  harmonic
| x  Mute note
============================================================================    

Added On December 16th, 2013

SHARE

Comments

blog comments powered by Disqus

VERSIONS

ADVERTISEMENT