Arctic Monkeys Tabs

Do Me A Favour

5 versions

TAB

            Do me a favour - arctic monkeys
Chords
D  (x57775)
E  (x79997)
F#m(244222)in chorus play as (x9-11-11-10-9)
D5 (x577xx)
E5 (x799xx)
F#5(x9-11-11-xx)

Intro:
G:--------------------------|
D:--------------------------|
A:------4-4----------4-4-4--|
E:--2-5-------2-2-5---------|

The F#m chord is strummed downwards on top of this bass riff all the way until the chorus:
e:-2----|
B:-2----|
G:-2----|
D:-4----|
A:-4----|
E:-2----|

Then the 2nd guitar comes in and plays this:
e:--9---7--5--2------4-----|
B:--10--9--7--2------2-----|
G:-------------------- x 2-|
D:-------------------------|
A:-------------------------|
E:-------------------------|

Then
e:--9---7--5--2-----9---7--4------|
B:--10--9--7--2-----10--9--2------|
G:--------------------------  x 2-|
D:--------------------------------|
A:--------------------------------|
E:--------------------------------|

3rd time
e:--9---7--5--2-----4    

Added On December 16th, 2013

SHARE

Comments

blog comments powered by Disqus

VERSIONS

ADVERTISEMENT