As Cities Burn Tabs

Admission Regret

1 versions

TAB

            Admission Regret Tab by As Cities Burn


Band-As Cities Burn
Song-Admission:Regret
Album-"Son I loved You at Your Darkest"

         So this is one of the most fun intros to play ever. And
I saw the other one was quiet off (still a pretty good job though
skippertipper) I have actually been tabbing this song for a while
and this is my best tab yet. so I hope you guys like it :)
      p.s- I would like to give credit to skippertipper for some 
of the stuff in here, good job man.

                        Tuning-Drop D (Dadgbe)

Intro
Guitar 1 (0:00-0:26)
E-------------------------|------------------------------|
B-------8-8v--------------|-------3v-3v-----------3------|
G----------------------9--|------------------------------|
D----9--------9------9----|----5--------5-----5----------|
A--7------------7--7------|--2------------2-2---2--------|
D-------------------------|------------------------------|

Intro
Guitar 2
E-------------------------|-------------------------------|
B-------------------------|-------------------------------|
G-------------------------|------------------------4------|
D-------2-----------2--2--|--------------------4h5--------|
A-------2-----------2--2--|-------------------------------|
D-------2-----------2--2--|-------------------------------|
        .           .  .

Intro cont.
Guitar 1
E-------------------------|------------------------------|
B-------8-8v--------------|-------3v-3v-----------3------|
G----------------------9--|------------------------------|
D----9--------9------9----|----5--------5-----5----------|
A--7------------7--7------|--2------------2-2---2--------|
D-------------------------|------------------------------|

Intro cont.
Guitar 2
E-------------------------|-------------------------------|
B-------------------------|-------------------------------|
G-------------------------|-------------------7*-5*-------|
D-------2-----------2--2--|----2-2------------------------|
A-------2-----------2--2--|----2-2------------------------|
D-------2-----------2--2--|----2-2------------------------|
        .           .  .       . .

Intro cont.
Guitar 1
E-------------------------|------------------------------|
B-------8-8v--------------|-------3v-3v-----------3------|
G----------------------9--|------------------------------|
D----9--------9------9----|----5--------5-----5----------|
A--7------------7--7------|--2------------2-2---2--------|
D-------------------------|------------------------------|

Intro cont.
Guitar 2
E-------------------------|-------------------------------|
B-------------------------|-------------------------------|
G-------------------------|-----------------7/9--7--5\4---|
D-------2-----------2--2--|-------------------------------|
A-------2-----------2--2--|-------------------------------|
D-------2-----------2--2--|-------------------------------|
        .           .  .      

Intro cont.
Guitar 1
E-------------------------|------------------------------|
B-------8-8v--------------|-------3v-3v-----------3------|
G----------------------9--|------------------------------|
D----9--------9------9----|----5--------5-----5----------|
A--7------------7--7------|--2------------2-2---2--------|
D-------------------------|------------------------------|

Intro cont.
Guitar 2
E-------------------------|-------------------------------|
B-------------------------|-------------------------------|
G-------------------------|-------------------7*-5*-------|
D-------2-----------2--2--|----2-2------------------------|
A-------2-----------2--2--|----2-2------------------------|
D-------2-----------2--2--|----2-2------------------------|
        .           .  .       . .

Pre verse 1
Guitar 1
E--------------------------------------|
B----5-x16---7-x16---8-x16---15-x16----|
G--------------------------------------|
D--------------------------------------|
A--------------------------------------|
D--------------------------------------|

Pre verse 1
Guitar 2 (0:26-0:39)
E--------------------------------------|
B----5-x16---3-x16---8-x16---12-x16----|
G--------------------------------------|
D--------------------------------------|
A--------------------------------------|
D--------------------------------------|

The really cool tremelo picking part
Guitar 1 (0:39-0:52)
E--19----14h15p14-------------19----14h15p14--------|-14h15p14-14h15p14--|
B-----15----------15---15--------15----------15-----|--------------------|
G--------------------16---16--------------------16--|--------------------|
D---------------------------------------------------|--------------------|
A---------------------------------------------------|--------------------|
D---------------------------------------------------|--------------------|


Guitar 2
E----12-----------------------12--------------------|-------------------|
B-------8--12h13p12--8---8-------8--12h13p12--8-----|-12h13p12-12h13p12-|
G----------------------7---7--------------------9---|-------------------|
D---------------------------------------------------|-------------------|
A---------------------------------------------------|-------------------|
D---------------------------------------------------|-------------------|

Verse 1
Guitar 1 and 2 (0:53)
E-------------------------------------------|
B-------------------------------------------|
G-------------------------------------------|
D--10\---10-10-10------10\--10-10-10--------|
A--10\---10-10-10--x4---9\---9--9--9-x4-----|
D--10\---10-10-10-------9\---9--9--9--------|


E-------------------------------------------|
B-------------------------------------------|
G-------------------------------------------|
D--10\---10-10-10-------2------------0------|
A--10\---10-10-10--x4---2------------0------|
D--10\---10-10-10-------2------------0------|

Verse 2
Guitar 1 and 2 (1:12)
E---------------------------------|-----------------------|
B---------------------------------|-------------10h12-----|
G---------------------------------|---11h12h14------------|
D---10/--10--10/--10----222---x2--|-----------------------|
A---10/--10--10/--10----222-------|-----------------------|
D---10/--10--10/--10----222-------|-----------------------|


Pull off section
Guitar 1     (1:37)
E-------19p15p14--15p12p10-------------------15p12p10---12p9p7-----------|
B-----------------------------------9------------------------------8-----|
G-----------------------------------12-----------------------------11----|
D--0---------------------------0----------0---------------------0--------|
A--0---------------------------0----------0---------------------0--------|
D--0---------------------------0----------0---------------------0--------|

Pull off section
Guitar 2     (1:37)
E------------------------------------------------------------------------|
B-----------------------------------9-------------------------------8----|
G-----------------------------------12------------------------------11---|
D---2/---------------14--------0----------2/-------------10------0-------|
A---2/---------------14--------0----------2/-------------10------0-------|
D---2/---------------14--------0----------2/-------------10------0-------|

Pre Bridge and bridge (Guitar 1 repeats the rest of the song)
Guitar 1 and 2
E-------------------------------------------|
B-------------------------------------------|
G-------------------------------------------|
D--10\---10-10-10------10\--10-10-10--------|x2
A--10\---10-10-10--x4---9\---9--9--9-x4-----|
D--10\---10-10-10-------9\---9--9--9--------|

Bridge
Guitar 2
E-----------------------|
B-----------------------|
G-10-----------5--------|
D--7--x alot---2-x alot-|
A--7-----------2--------|
D--7-----------2--------|


Palm mute .......
pull off    p
hammer on   h
vibrato     v
harmonic    *
Bend        b
slide up    /
slide down  \

The intro of this song is so awsome. This is one of my favorite songs
by them. I really hope you guys enjoyed it.Admissionregret Tab by As Cities Burn


Song: Admission:Regret.
Band: As cities burn.
Album: Son, I loved you at your darkest.

Since theres only one other song on here by the great As Cities Burn (great job on The 
that kills by the way), id figure i post the one i tabbed.
I'm trying to get more tabs, so be on the look out. Im sure this is off, but hey, its 
work off of.


Note: I dont care if you post this at every tab site, just give me credit.

|-----------------------------------------------------------------------------------|
|--------8--8--8------8--------7--7--7----------------------------------------------|
|------7---------7----------7----------[5s7-7h9]------------------------------------|
|----5-------------5-----5----------------------------------------------------------|
|-----------------------------------------------------------------------------------|
|-----------------------------------------------------------------------------------|
[Both guitars with reverb and feedback]

|-------------------------------------------------------------------------------|
|---------8--8--8------8-----7--7--7--------------------------------------------|
|-------7---------8--------7--------------------------------------------------------|
|----5--------------5----5----------------------------------------------------------|
|-----------------------------------------------------------------------------------|
|-----------------------------------------------------------------------------------|


|-----------------------------------------------------------------------------------|
|---------8--8--8------8-----7--7--7----5---3---1---0-------------------------------|
|-------7---------8--------7--------------------------------------------------------|
|----5--------------5----5----------------------------------------------------------|
|-----------------------------------------------------------------------------------|
|-----------------------------------------------------------------------------------|


|-------------------------------------------------------------------------------|
|---------8--8--8------8-----7--7--7--------------------------------------------|
|-------7---------8--------7--------------------------------------------------------|
|----5--------------5----5----------------------------------------------------------|
|-----------------------------------------------------------------------------------|
|-----------------------------------------------------------------------------------|

|-----------------------------------------------------------------------------------|
|--------8--8--8-----8-----7--7--7------8--8--8-----8-----7--7--7-------------------|
|-----7----------8-------7------------7---------8-------7---------------------------|
|---5--------------5---5------------5-------------5---5-----------------------------|
|-----------------------------------------------------------------------------------|
|-----------------------------------------------------------------------------------|
At the very beggining of this go-around, Cody comes in with some tremelo picked riff
I cant figure out.

|---12--10------10--12--10-----------12--10------10--12--10-------------------------|
|-----------12-------------------------------12-------------------------------------|
|---------------------------12-------------------------------12---------------------|
|-----------------------------------------------------------------------------------|
|-----------------------------------------------------------------------------------|
|-----------------------------------------------------------------------------------|

|---12--10------10--12--10-----------12--10------10--12--10-------------------------|
|-----------12-------------------------------12-------------------------------------|
|---------------------------12-------------------------------12---------------------|
|-----------------------------------------------------------------------------------|
|-----------------------------------------------------------------------------------|
|-----------------------------------------------------------------------------------|

|---12--10------10--12--10-----------12--10------10--12--10-------------------------|
|-----------12-------------------------------12-------------------------------------|
|---------------------------12-------------------------------12---------------------|
|-----------------------------------------------------------------------------------|
|-----------------------------------------------------------------------------------|
|-----------------------------------------------------------------------------------|

|---12--10------10--12--10----------------------------------------------------------|
|-----------12----------------------------------------------------------------------|
|---------------------------12------------------------------------------------------|
|-----------------------------------------------------------------------------------|
|-----------------------------------------------------------------------------------|
|-----------------------------------------------------------------------------------|

|-----------------------------------------------------------------------------------|
|-----------------------------------------------------------------------------------|
|-----------------------------------------------------------------------------------|
|---s10--10--s10--10--s10--10--s10--10----------------------------------------------|
|---s10--10--s10--10--s10--10--s10--10----------------------------------------------|
|---s10--10--s10--10--s10--10--s10--10----------------------------------------------|
You get the idea, its just that.


|-----------------------------------------------------------------------------------|
|-----------------------------------------------------------------------------------|
|-----------------------------------------------------------------------------------|
|----10--10--10--10--10s8--8--8--8-----10\/10--10\/10--10\/10-----------------------|
|----10--10--10--10--10s8--8--8--8-----10\/10--10\/10--10\/10-----------------------|
|----10--10--10--10--10s8--8--8--8-----10\/10--10\/10--10\/10-----------------------|
At this point its 1:08 in the song.

|--------10--12-----------10--12-----------10--12-----------10--12-----------10--12-|
|-10--12-----------10--12-----------10--12-----------10--12-----------10--12--------|
|-----------------------------------------------------------------------------------|
|-----------------------------------------------------------------------------------|
|-----------------------------------------------------------------------------------|
|-----------------------------------------------------------------------------------|


|---------10--12-----------10--12---------------------------------------------------|
|--10--12-----------10--12----------------------------------------------------------|
|-----------------------------------------------------------------------------------|
|-----------------------------------------------------------------------------------|
|-----------------------------------------------------------------------------------|
|-----------------------------------------------------------------------------------|

|-------------19--19--17--15----------------------17--15--13------------------------|
|-----------------------------17-------------10---------------15--------------------|
|--------------------------------------------12-------------------------------------|
|---0-------------------------------0--s10------------------------------------------|
|---0-------------------------------0--s10------------------------------------------|
|---0-------------------------------0--s10------------------------------------------|

|-------------19--19--17--15----------------------17--15--13------------------------|
|-----------------------------17-------------10---------------15--------------------|
|--------------------------------------------12-------------------------------------|
|---0-------------------------------0--s10------------------------------------------|
|---0-------------------------------0--s10------------------------------------------|
|---0-------------------------------0--s10------------------------------------------|

|-------------19--19--17--15----------------------17--15--13------------------------|
|-----------------------------17-------------10---------------15--------------------|
|--------------------------------------------12-------------------------------------|
|---0-------------------------------0--s10------------------------------------------|
|---0-------------------------------0--s10------------------------------------------|
|---0-------------------------------0--s10------------------------------------------|

|-------------19--19--17--15----------------------17--15--13------------------------|
|-----------------------------17-------------10---------------15--------------------|
|--------------------------------------------12-------------------------------------|
|---0-------------------------------0--s10------------------------------------------|
|---0-------------------------------0--s10------------------------------------------|
|---0-------------------------------0--s10------------------------------------------|

|-------------19--19--17--15----------------------17--15--13------------------------|
|-----------------------------17-------------10---------------15--------------------|
|--------------------------------------------12-------------------------------------|
|---0-------------------------------0--s10------------------------------------------|
|---0-------------------------------0--s10------------------------------------------|
|---0-------------------------------0--s10------------------------------------------|

|-------------19--19--17--15----------------------17--15--13------------------------|
|-----------------------------17-------------10---------------15--------------------|
|--------------------------------------------12-------------------------------------|
|---0-------------------------------0--s10------------------------------------------|
|---0-------------------------------0--s10------------------------------------------|
|---0-------------------------------0--s10------------------------------------------|

|-----------------------------------------------------------------------------------|
|-----------------------------------------------------------------------------------|
|-----------------------------------------------------------------------------------|
|---s10--10--s10--10--s10--10--s10--10----------------------------------------------|
|---s10--10--s10--10--s10--10--s10--10----------------------------------------------|
|---s10--10--s10--10--s10--10--s10--10----------------------------------------------|
That a couple of times.

|-----------------------------------------------------------------------------------|
|-----------------------------------------------------------------------------------|
|-----------------------------------------------------------------------------------|
|---s8--8--s8--8--s8--8--s8--8------------------------------------------------------|
|---s8--8--s8--8--s8--8--s8--8------------------------------------------------------|
|---s8--8--s8--8--s8--8--s8--8------------------------------------------------------|
That a couple of times.

|----------------------------------------------------------------------------------|
|----------------------------------------------------------------------------------|
|----------------------------------------------------------------------------------|
|---/8-----------------------------------------------------------------------------|
|---/8-----------------------------------------------------------------------------|
|---/8-----------------------------------------------------------------------------|
Thats it.    

Added On December 4th, 2013

SHARE

Comments

blog comments powered by Disqus

ADVERTISEMENT