As I Lay Dying Tabs

Losing Sight

9 versions

TAB

            Losing Sight Tab by As I Lay Dying


Hey Everyone. As I Lay Dying is awesome. I got some of the other tabs on this site
(thanks), they got me started, but none of them were totally right, and none of them
had guitar 2, so i decided to figure it out. Also my band is covering for this song,
so hopefully im close to 100% on this one.
check out my band:  www.myspace.com/truthbydeath


Guitar 1:

D|-----------------------------------------------------------------|
A|-----------------------------------------------------------------|
F|-----------------------------------------------------------------|
C|-----------------------------7p0-------------------------------5-| x4
G|-000-000-000-5h8-000-0-8p5p0-----000-000-000-5h8-000---3-000-3---|
C|-000-000-000-----000-0-----------000-000-000-----000-3---000-----|
Pm ... ... ...     ... .           ... ... ...     ...     ...

Guitar 2:

D|-------------------------------------------------------|
A|-------------------------------------------------------|
F|-------------------------------------------------------|
C|-------------------------------------------------------| x2
G|-------------------------------------------------------|
C|-------------------------------------------------------|

Im debating weather or not this part is there, or if guitar 2 just plays guitar 1's 
You can decide.
D|-------------------------------------------------------------------|
A|-------------------------------------------------------------------|
F|-------------------------------------------------------------------|
C|-0-0-0-0-0-0-0-0-0-0-0-0-0-0-0-0-0-0-0-0-0-0-0-0-0-0-0-0-0-0-0-0-0-| x2
G|-0-0-0-0-0-0-0-0-0-0-0-0-0-0-0-0-0-0-0-0-0-0-0-0-0-0-0-0-0-0-0-0-0-|
C|-0-0-0-0-0-0-0-0-0-0-0-0-0-0-0-0-0-0-0-0-0-0-0-0-0-0-0-0-0-0-0-0-0-|
Pm . . . . . . . . . . . . . . . . . . . . . . . . . . . . . . . . .

Guitar 1:

D|-----------------------------------------------------------------|
A|-----------------------------------------------------------------|
F|-----------------------------------------------------------------|
C|-0---0-000-000-3h5---7---7---5---7---5---3---2---3---3---2---0---|
G|-0---0-000-000---------------------------------------------------|
C|-0---0-000-000-----0---0---0---0---0---0---0---0---0---0---0---0-|
Pm     . ... ...     .   .   .   .   .   .   .   .   .   .   .   .       >x4

D|-----------------------------------------------------------------|
A|-----------------------------------------------------------------|
F|-----------------------------------------------------------------|
C|-0---0-000-000-3h5---7---7---5---10--8---7---5---8---7---5---3---|
G|-0---0-000-000---------------------------------------------------|
C|-0---0-000-000-----0---0---0---0---0---0---0---0---0---0---0---0-|
Pm     . ... ...     .   .   .   .   .   .   .   .   .   .   .   .

Guitar 2:

D|-----------------------------------------------------------------|
A|-----------------------------------------------------------------|
F|-----------------------------------------------------------------|
C|-0~--------------------------------------------------------------|
G|-0~--------------------------------------------------------------|
C|-0~--------------------------------------------------------------|

D|-----------------------------------------------------------------|
A|-----------------------------------------------------------------|
F|-----------------------------------------------------------------|
C|-0~------------------------------8~--------------5~--------------|
G|-0~------------------------------8~--------------5~--------------|
C|-0~------------------------------8~--------------5~--------------|

D|-----------------------------------------------------------------|
A|-----------------------------------------------------------------|
F|-----------------------------------------------------------------|
C|-0~--------------------------------------------------------------|
G|-0~--------------------------------------------------------------|
C|-0~--------------------------------------------------------------|

D|-----------------------------------------------------------------|
A|-----------------------------------------------------------------|
F|-----------------------------------------------------------------|
C|-0~------------------------------8-8-8-8-8-8-8-8-5-5-5-5-5-5-5-5-|
G|-0~------------------------------8-8-8-8-8-8-8-8-5-5-5-5-5-5-5-5-|
C|-0~------------------------------8-8-8-8-8-8-8-8-5-5-5-5-5-5-5-5-|
Pm                                   . . . . . . . . . . . . . . .

D|------------------------------------------------------------------|
A|------------------------------------------------------------------|
F|------------------------------------------------------------------|
C|-0---0-000-000--------0-000-000-0---0---0-000-000---3---3---2---0-|
G|-0---0-000-000--------0-000-000-0---0---0-000-000-----------------|
C|-0---0-000-000--------0-000-000-0---0---0-000-000-0---0---0---0---|
Pm     . ... ...        . ... ... .       . ... ... .   .   .   .
                                                                       >x2
D|------------------------------------------------------------------|
A|------------------------------------------------------------------|
F|------------------------------------------------------------------|
C|-0---0-000-000-----0-000-000-0----8---8-888-888-8-5---5-555-555-5-|
G|-0---0-000-000-----0-000-000-0----8---8-888-888-8-5---5-555-555-5-|
C|-0---0-000-000-----0-000-000-0----8---8-888-888-8-5---5-555-555-5-|
Pm     . ... ...     . ... ...          . ... ... .     . ... ... .

Guitar 1 & 2:

D|-----------------------------------------------------------------|
A|-----------------------------------------------------------------|
F|-----------------------------------------------------------------|
C|-0---------------3---------------------------------------3p0-7p0-|
G|-0---------------------9---3---5-----------------5p0-3h5---------|
C|-0-0-0-0-0-0-0-0---0-0---0---0---0-0-0-0-0-0-0-0-----------------|
Pm . . . . . . . .   . .   .   .   . . . . . . . .

D|-----------------------------------------------------------------|
A|-----------------------------------------------------------------|
F|-----------------------------------------------------------------|
C|-0---------------3-------------------------------8~------10~-----|
G|-0---------------------9---3---5-----------------8~------10~-----|
C|-0-0-0-0-0-0-0-0---0-0---0---0---0-0-0-0-0-0-0-0-8~------10~-----|
Pm . . . . . . . .   . .   .   .   . . . . . . . .

D|-----------------------------------------------------------------|
A|-----------------------------------------------------------------|
F|-----------------------------------------------------------------|
C|-0---------------3---------------------------------------3p0-7p0-|
G|-0---------------------9---3---5-----------------5p0-3h5---------|
C|-0-0-0-0-0-0-0-0---0-0---0---0---0-0-0-0-0-0-0-0-----------------|
Pm . . . . . . . .   . .   .   .   . . . . . . . .

D|-----------------------------------------------------------------|
A|-----------------------------------------------------------------|
F|-----------------------------------------------------------------|
C|-0---------------3-------------------------------0-----------2h3-|
G|-0---------------------9---3---5-----------------0-------0h3-----|
C|-0-0-0-0-0-0-0-0---0-0---0---0---0-0-0-0-0-0-0-0-0---------------|
Pm . . . . . . . .   . .   .   .   . . . . . . . . .

Guitar 1:

D|-----------------------------------------------------------------|
A|-----------------------------------------------------------------|
F|-----------------------------------------------------------------|
C|-----------------------------7p0-------------------------------5-| x4
G|-000-000-000-5h8-000-0-8p5p0-----000-000-000-5h8-000---3-000-3---|
C|-000-000-000-----000-0-----------000-000-000-----000-3---000-----|
Pm ... ... ...     ... .           ... ... ...     ...     ...

Guitar 2:

D|-------------------------------------------------------|
A|-------------------------------------------------------|
F|-------------------------------------------------------|
C|-------------------------------------------------------| x2
G|-------------------------------------------------------|
C|-------------------------------------------------------|

Again, like above, I think this goes fine.
D|-------------------------------------------------------------------|
A|-------------------------------------------------------------------|
F|-------------------------------------------------------------------|
C|-0-0-0-0-0-0-0-0-0-0-0-0-0-0-0-0-0-0-0-0-0-0-0-0-0-0-0-0-0-0-0-0-0-| x2
G|-0-0-0-0-0-0-0-0-0-0-0-0-0-0-0-0-0-0-0-0-0-0-0-0-0-0-0-0-0-0-0-0-0-|
C|-0-0-0-0-0-0-0-0-0-0-0-0-0-0-0-0-0-0-0-0-0-0-0-0-0-0-0-0-0-0-0-0-0-|
Pm . . . . . . . . . . . . . . . . . . . . . . . . . . . . . . . . .

Guitar 1:

D|------------------------------------------------------------------|
A|------------------------------------------------------------------|
F|---------------------------------------------------------7---10---|
C|-----------------------------7p0-----------------7---------7----7-|
G|-000-000-5h8-0-0-000-000-5p0-----000-000-5h8-0-0---8-7-8----------|
C|-000-000-----0-0-000-000---------000-000-----0-0------------------|
Pm ... ...     . . ... ...         ... ...     . .   . . .
                                                                      >x2
D|-----------------------------------------------------------------|
A|-----------------------------------------------------------------|
F|-----------------------------------------------------------------|
C|-----------------------------7p0-----------------------------2h3-|
G|-000-000-5h8-0-0-000-000-5p0-----000-000-5h8-0-0-000-000-0h3-----|
C|-000-000-----0-0-000-000---------000-000-----0-0-000-000---------|
Pm ... ...     . . ... ...         ... ...     . . ... ...

Guitar 2:

D|-----------------------------------------------------------------|
A|-----------------------------------------------------------------|
F|-----------------------------------------------------------------|
C|-----------------------------7p0---------------------------------|
G|-000-000-5h8-0-0-000-000-5p0-----000-000-5h8-0-0-000-000-000-000-|
C|-000-000-----0-0-000-000---------000-000-----0-0-000-000-000-000-|
Pm ... ...     . . ... ...         ... ...     . . ... ... ... ...                       
                                                       >x2
D|-----------------------------------------------------------------|
A|-----------------------------------------------------------------|
F|-----------------------------------------------------------------|
C|-----------------------------7p0-------------------------------0-|
G|-000-000-5h8-0-0-000-000-5p0-----000-000-5h8-0-0-000-000-0-0-3---|
C|-000-000-----0-0-000-000---------000-000-----0-0-000-000---------|
Pm ... ...     . . ... ...         ... ...     . . ... ...

Guitar 1 & 2:

D|-----------------------------------------------------------------|
A|-----------------------------------------------------------------|
F|-----------------------------------------------------------------|
C|-0---------------3---------------------------------------3p0-7p0-|
G|-0---------------------9---3---5-----------------5p0-3h5---------|
C|-0-0-0-0-0-0-0-0---0-0---0---0---0-0-0-0-0-0-0-0-----------------|
Pm . . . . . . . .   . .   .   .   . . . . . . . .

D|-----------------------------------------------------------------|
A|-----------------------------------------------------------------|
F|-----------------------------------------------------------------|
C|-0---------------3-------------------------------8~------10~-----|
G|-0---------------------9---3---5-----------------8~------10~-----|
C|-0-0-0-0-0-0-0-0---0-0---0---0---0-0-0-0-0-0-0-0-8~------10~-----|
Pm . . . . . . . .   . .   .   .   . . . . . . . .

D|-----------------------------------------------------------------|
A|-----------------------------------------------------------------|
F|-----------------------------------------------------------------|
C|-0---------------3---------------------------------------3p0-7p0-|
G|-0---------------------9---3---5-----------------5p0-3h5---------|
C|-0-0-0-0-0-0-0-0---0-0---0---0---0-0-0-0-0-0-0-0-----------------|
Pm . . . . . . . .   . .   .   .   . . . . . . . .

D|-----------------------------------------------------------------|
A|-----------------------------------------------------------------|
F|-----------------------------------------------------------------|
C|-0---------------3-------------------------------0---------------|
G|-0---------------------9---3---5-----------------0---------------|
C|-0-0-0-0-0-0-0-0---0-0---0---0---0-0-0-0-0-0-0-0-0---------------|
Pm . . . . . . . .   . .   .   .   . . . . . . . . .

Guitar 1:

D|-----------------------------------------------------------------|
A|-----------------------------------------------------------------|
F|-----------------------------------------------------------------|
C|-0---0-000-000-3h5---7---7---5---7---5---3---2---3---3---2---0---|
G|-0---0-000-000---------------------------------------------------|
C|-0---0-000-000-----0---0---0---0---0---0---0---0---0---0---0---0-|
Pm     . ... ...     .   .   .   .   .   .   .   .   .   .   .   .       >x4

D|-----------------------------------------------------------------|
A|-----------------------------------------------------------------|
F|-----------------------------------------------------------------|
C|-0---0-000-000-3h5---7---7---5---10--8---7---5---8---7---5---3---|
G|-0---0-000-000---------------------------------------------------|
C|-0---0-000-000-----0---0---0---0---0---0---0---0---0---0---0---0-|
Pm     . ... ...     .   .   .   .   .   .   .   .   .   .   .   .

Guitar 2:

D|------------------------------------------------------------------|
A|------------------------------------------------------------------|
F|------------------------------------------------------------------|
C|-0---0-000-000--------0-000-000-0---0---0-000-000---7---7---5---3-|
G|-0---0-000-000--------0-000-000-0---0---0-000-000-----------------|
C|-0---0-000-000--------0-000-000-0---0---0-000-000-0---0---0---0---|
Pm     . ... ...        . ... ... .       . ... ... .   .   .   .
                                                                      >x4
D|------------------------------------------------------------------|
A|------------------------------------------------------------------|
F|------------------------------------------------------------------|
C|-0---0-000-000-----0-000-000-0----8---8-888-888-8-5---5-555-555-5-|
G|-0---0-000-000-----0-000-000-0----8---8-888-888-8-5---5-555-555-5-|
C|-0---0-000-000-----0-000-000-0----8---8-888-888-8-5---5-555-555-5-|
Pm     . ... ...     . ... ...          . ... ... .    . ... ... .

Guitar 1 & 2:

D|---------------|
A|---------------|
F|---------------|
C|-0---0-000-000-|
G|-0---0-000-000-|
C|-0---0-000-000-|
Pm     . ... ...


And thats it. Anything you notice thats wrong or w/e feedback is cool: natejrundle@hotmail.com    

Added On December 4th, 2013

SHARE

Comments

blog comments powered by Disqus