Asaf Avidan Tabs

Jet Plane

1 versions

TAB

            Made by listening to the acoustic version from "Avidan in A Box"

This is an intro which Rona plays palm muted 4 times which is played also between the verses:

  PM PM PM PM PM PM PM PM PM PM PM PM
e|-----------------------------------|
B|-----------------------------------|
G|-----------------------------------|
D|-----------------------------3-----|
A|-3-5-5---3-5-5---3-5-5---3-5---5-3-|
E|-----------------------------------|

between verses she adds in the 4th time of the intro:

 PM PM PM PM PM PM PM PM PM PM PM PM
e|----------------------------|
B|----------------------------|
G|----------------------------|
D|---------------------3----3-|
A|-3-5-5---3-5-5---3-5----5---|
E|----------------------------|

during the verse:

D
e|------------------------------|
B|------------------------------|
G|------------------------------|
D|------------------------------|
A|-3-5-5---3-5-5---3-5-5---3-5-5|
E|------------------------------|

C
e|------------------------------|
B|------------------------------|
G|------------------------------|
D|------------------------------|
A|-1-3-3---1-3-3---1-3-3---1-3-3|
E|------------------------------|

D                          
Door shuts, here we go
Same old one hit we know
C
Cut, slice, roll the dice
Nothing worse than ending nice
D
Floors, flags, world in bags
Open wounds and shattered rags
C
Here we go again
(Here we go again)

G                                D
It hurts like a jet plane taking off    

Added On December 16th, 2013

SHARE

Comments

blog comments powered by Disqus

ADVERTISEMENT