Ataris Tabs

Myself

1 versions

TAB

            -----------------------------------------------------------------
Myself - The Ataris
-----------------------------------------------------------------
Tabbed by: Bair
Email: bair_morritt@hotmail.com
Tuning: Standard

** I fast, 1:30 minute punk rock song...very simple.**

Intro G1: Distorted Feedback

Intro G2:
e|------------------------------------------|
B|------------------------------------------|
G|------------3333--5555--------------------|
D|--33333333--3333--5555-(X2)---------------|
A|--33333333--1111--3333--------------------|
E|--11111111--------------------------------|

Verse:
e|------------------------------------------|
B|------------------------------------------|
G|------------3333--5555--------------------|
D|--33333333--3333--5555-(X2)---------------|
A|--33333333--1111--3333--------------------|
E|--11111111--------------------------------|
"Why live my life day by day...."

Pre-Chorus:
e|------------------------------------------|
B|------------------------------------------|
G|--7777--3333--55555555--------------------|
D|--7777--3333--55555555-(X4)---------------|
A|--5555--1111--33333333--------------------|
E|------------------------------------------|
"Even though I feel alone inside...."

Chorus:
e|------------------------------------------|
B|------------------------------------------|
G|-------------3333--5555-------------------|
D|--333333333--3333--5555-(X4)--------------|
A|--333333333--1111--3333-------------------|
E|--111111111-------------------------------|
"I'm gonna speak my mind, you're gonna speak...."

-Then Pre- Chorus
-Then Chorus

Interlude:
e|------------------------------------------|
B|------------------------------------------|
G|--10101010-10101010-10101010-10101010-----|
D|---x-x-x-x--x-x-x-x--x-x-x-x--x-x-x-x-----|
A|---8-8-8-8--8-8-8-8--8-8-8-8--8-8-8-8-----|
E|------------------------------------------|

e|----------------------------|
B|----------------------------|
G|--10101010--10--9--10-------|
D|---8-8-8-8---8--7---x-------|
A|--------------------8-------|
E|----------------------------|

-Then Pre- Chorus
-Then Chorus    

Added On December 16th, 2013

SHARE

Comments

blog comments powered by Disqus

ADVERTISEMENT