Atoms For Peace Tabs

Amok

1 versions

TAB

            Welcome to the huge psychedelic trip of Amok, by Sear Thom Yorke!
Hope you'll enjoy it!


Standard tuning
Capo on 6th fret


INTRO

-0---0---0--   -0---0---0---0---0---0---0-    --0---0---0---0---0---0--x--x--|
-0---0---0--   -0---0---0---0---0---0---0-    --0---0---0---0---0---0--3--3--|
-5---5---2--   -0---5---5---0---5---0---0-    --0---5---5---0---5---0--3--3--|
-5---x---x--   -5---x---5---2---0---0---7-    --5---x---5---2---0---0--0--0--|
-x---3---2--   -7---5---x---2---x---3---x-    --7---5---x---2---x---3--x--x--|
-5---x---x--   -x---x---5---0---3---5---7-    --x---x---5---0---3---5--3--1--|



FIRST PART



-0---0---x---x---x------|
-0---0---3---3---3------|
-0---0---3---3---3------| (x2) without lyrics
-2---5---5---0---0------|
-2---7---5---x---x------|
-0---x---x---3---1------|

-0---0---x---x---x------|
-0---0---0---3---3------|
-0---0---5---3---3------| (x2) without lyrics
-2---5---7---0---0------|
-2---7---x---x---x------|
-0---x---5---3---1------|




-0---0---x---x---x------|
-0---0---3---3---3------|
-0---0---3---3---3------| (x2)
-2---5---5---0---0------|
-2---7---5---x---x------|
-0---x---x---3---1------|

A penny for your thoughts my love
A penny for your thoughts my love
A swinging door
A swinging door

-0---0---x---x---x------|
-0---0---0---3---3------|
-0---0---5---3---3------| (x2)
-2---5---7---0---0------|
-2---7---x---x---x------|
-0---x---5---3---1------|

A penny for your thoughts
They try to jump me
They try to jump me
A penny for you thoughts my love



-0---0---x---x---x------|
-0---0---3---3---3------|
-0---0---3---3---3------| (x2)
-2---5---5---0---0------|
-2---7---5---x---x------|
-0---x---x---3---1------|

A penny for you thoughts my love
They're spaghetti
They're spaghetti
They possess me
They possess me
They possess me

-0---0---x---x---x------|
-0---0---0---3---3------|
-0---0---5---3---3------| (x2)
-2---5---7---0---0------|
-2---7---x---x---x------|
-0---x---5---3---1------|

I'm trying to be a thought killer
I'm trying to be a thought killer
They come back to bite me
They come back to bite me




-0---0---x---x---x------|
-0---0---3---3---3------|
-0---0---3---3---3------| (x2)
-2---5---5---0---0------|
-2---7---5---x---x------|
-0---x---x---3---1------|

A penny for your thoughts
A penny for your
A penny for your thoughts my love
They court disaster
They court disaster


-0---0---x---x---x------|
-0---0---0---3---3------|
-0---0---5---3---3------| (x1)
-2---5---7---0---0------|
-2---7---x---x---x------|
-0---x---5---3---1------|

I'm trying to be a thought killer
A penny for your thoughts my love

-0---0---0---0---|
-0---0---0---0---|
-0---5---5---0---| (x1)
-5---x---5---2---|
-7---5---x---2---|
-x---x---5---0---|

A penny for your thoughts my love


SECOND PART


-0---0---0----|
-0---0---0----|
-5---5---2----| (x1)
-5---x---x----|
-x---3---2----|
-5---x---x----|

I'm sending out choirs of angels

--0---0---0---0---0---0---0---|
--0---0---0---0---0---0---0---|
--0---5---5---0---5---0---0---|  (x5)
--5---x---5---2---0---0---7---|
--7---5---x---2---x---3---x---|
--x---x---5---0---3---5---7---|

Trying round pieces of string
Pieces of string
Oooo…
To run amok run amok ran amok
To run amok
I'm sending out choirs of angels
Trying round pieces of string
Pieces of string
Oooo…
To run amok run amok ran amok
To run amok
You got me you got me you got me
To run amok run amok ran amok
To run amok


Outro

-3---2---0-|
-4---3---0-|
-5---4---0-|
-5---4---2-|
-3---2---2-|
-3---2---0-|


Wow...    

Added On December 16th, 2013

SHARE

Comments

blog comments powered by Disqus

ADVERTISEMENT