August Burns Red Tabs

Beauty In Tragedy

1 versions

TAB

            Unfortunately I don't know the whole song just yet, but I do have a good portion
of it down, so here we go, my first tab. :)

!= pickscrape the headstock string(s)

  fig.1
D#|---|---------------------------------|
A#|-!-|-----------5---------------------|
F#|-!-|---------------6-----------------|
C#|-!-|-4---6h7-----------4---6h7---2---|
G#|---|---------------------------------|
C#|---|---0-----0---0---0---0-----0---0-|
pm        .     .   .   .   .     .   .

fig.2
|---------------------------------|---------------|
|---------------------------------|---------5-----|
|-----------4---6-------------4---|-------6---6---|
|-7---6h7-----------7---6h7-------|-4-6-7-------7-|
|---------------------------------|---------------|
|---4-----4---4---4---4-----4---4-|---------------|
pm  .     .   .   .   .     .   .

fig.3
|-------------------------------------------|
|-------------------------------------------|
|-------------------------------------------|
|-0-2-4-(2/4)---0-7-4-(2/4)---0-2-4---0-2-4-|
|-0-2-4-(2/4)---0-7-4-(2/4)---0-2-4---0-2-4-|
|-0-2-4-(2/4)---0-7-4-(2/4)---0-2-4---0-2-4-|
sorry but I can't figure out how to properly tab out when they use triplets to slow down 
the song :/

fig.4
|-----------------------------------------------------|
|-----------------------------------------7---7---7-7-|
|-----------------------------------------6---6---6-6-|
|-0---0---0-0--x-x----0---0-----0-0-0-----4---4---4-4-|
|-0---0---0-0--x-x--000---0---000-0-0---004---4---4-4-|
|-0---0---0-0--x-x--000---0---000-0-0---004---4---4-4-|
pm                  ..        ..        ..

|--------------------|
|----7---7-----------|
|----6---6-----9-9-9-|
|----4---4-----7-7-7-|
|--444---4---447-7-7-|
|--444---4---447-7-7-|
pm ..        ..

|----------------------------------------|
|----------------------------------------|
|----------------------------------------|
|----0---0---0-0--x-x----0---0-----0-0-0-|
|--000---0---0-0--x-x--000---0---000-0-0-|
|--000---0---0-0--x-x--000---0---000-0-0-|
pm ..                  ..        ..

|------------------------------------|-----|
|----7---7---7-7--!--7---7-----------|-----|
|----6---6---6-6--!--6---6-----9-9-9-|-----|
|----4---4---4-4--!--4---4-----7-7-7-|---0-|
|--004---4---4-4-----4---4---447-7-7-|-000-|
|--004---4---4-4-----4---4---447-7-7-|-000-|
pm ..                        ..        ..

And that's all I got so far hopefully this helps in getting you started and on your way :D    

Added On December 16th, 2013

SHARE

Comments

blog comments powered by Disqus

ADVERTISEMENT