August Burns Red Tabs

The Blinding Light

1 versions

TAB

            August Burns Red – The Blinding Light

Drop C (C G C F A D)

This was done ALL by ear.

I’m trying to do this without Guitar Pro so that as many people as possible can view 
So I’m sure it will be a little confusing at parts. But I will try my best to make it as 
as possible.

Any questions, comments, or requests e-mail me:
poppyben@gmail.com

Legend
S – slide
X – Mute note
V – Vibrato
*(P.H) - Pinch Harmonic
p – pull-off
h – hammer-on

Good Luck!


Intro(0:17-0:34)
D|----------------------------------------------------------------|
A|----------------------------------------------------------------|
F|-------------------------6p0-3p0--------9p0-3p0------------6----|
C|--------------------------------------------------------7p0-----|
G|-000-000-555-000—8p0-4p0---------000-000--------000-000---------|
C|-000-000-------------------------000-000--------000-000---------|x4
PM ... ... ... ...		   ... ...	  ... ...

(0:35-0:40)
D|-----------------------------------------------------------|
A|-----------------------------------------------------------|
F|-6p0h9--6p0h9-6p0h9--6p0h9-7p0h10--7p0h10-7p0h10--7p0h10---|
C|-----------------------------------------------------------|
G|------00-----------00------------00-------------00---------|
C|------00-----------00------------00-------------00---------|
P.M     ..           ..            ..             ..

(0:41-0:46)
D|---------------------------------------------------------------|
A|---------------------------------------------------------------|
F|-9p0h12--9p0h12-9p0h12--9p0h12-7p0h10--7p0h10-7p0h10--7p0h10---|
C|---------------------------------------------------------------|
G|-------00-------------00-------------00-------------00---------|
C|-------00-------------00-------------00-------------00---------|
PM       ..             ..             ..             ..

(0:47-0:52)
D|-----------------------------------------------------------|
A|-----------------------------------------------------------|
F|-6p0h9--6p0h9-6p0h9--6p0h9-7p0h10--7p0h10-7p0h10--7p0h10---|
C|-----------------------------------------------------------|
G|------00-----------00------------00-------------00---------|
C|------00-----------00------------00-------------00---------|
PM      ..           ..            ..             ..

(0:52-0:57)
D|-------------------------------------------------------------------|
A|-------------------------------------------------------------------|
F|-9p0h12--9p0h12-9p0h12--9p0h12-10p0h14--10p0h14--10p0h14--10p0h14--|
C|-------------------------------------------------------------------|
G|-------00-------------00--------------00----------------00---------|
C|-------00-------------00--------------00----------------00---------|
PM       ..             ..              ..                ..

“Man down!”(0:57-1:10)
D|------------------------------------------|
A|------------------------------------------|
F|------------------------------------------|
C|--000-000-0--000-0-00-00-0-00-00-00000----|
G|--000-000-0--000-0-00-00-0-00-00-00000----|
C|--000-000-0--000-0-00-00-0-00-00-00000----|x4
PM  ... ... .  ... . .. .. . .. .. .....

(1:10-1:16)
D|-----------------------------------------------------------|
A|-----------------------------------------------------------|
F|-----------------------------------------------------------|
C|-----------------------------------------------------------|
G|-4p0h7--4p0h7-4p0h7--4p0h7--5p0h8--5p0h8-5p0h8--5p0h8------|
C|-----------------------------------------------------------|

(1:16-1:23)
D|---------------------------------------------------------------|
A|---------------------------------------------------------------|
F|---------------------------------------------------------------|
C|---------------------------------------------------------------|
G|-7p0h10--7p0h10-7p0h10--7p0h10--8p0h12--8p0h12-8p0h12--8p0h12--|
C|---------------------------------------------------------------|

Light Distortion(1:23-2:16)
D|-----13----12h13-------13----12h13----------------8---8---8----|
A|-------15-------15-------15-------15----10---10----------------|
F|---14----14-------14-14----14--------9-9--9-9--9-9-9-9-9-9-----|
C|---------------------------------------------------------------|
G|---------------------------------------------------------------|
C|---------------------------------------------------------------|x8

(2:16-2:35)
D|----------------------------------------------------------------|
A|----------------------------------------------------------------|
F|---------10-------------14-15-15--------------------------------|
C|---------x---------------x--x--x-888-888-888-888-777-777-7-7-7--|
G|-000-000-8--000-000-000-12-13-13-888-888-888-888-777-777-7-7-7--|
C|-000-000----000-000-000----------888-888-888-888-777-777-7-7-7--|x4
PM ... ...    ... ... ...          ... ... ... ... ... ...

(2:35-2:40)
D|-----------------------------------------------------------|
A|-----------------------------------------------------------|
F|-6p0h9--6p0h9-6p0h9--6p0h9-7p0h10--7p0h10-7p0h10--7p0h10---|
C|-----------------------------------------------------------|
G|------00-----------00------------00-------------00---------|
C|------00-----------00------------00-------------00---------|
P.M     ..           ..            ..             ..

(2:41-2:46)
D|---------------------------------------------------------------|
A|---------------------------------------------------------------|
F|-9p0h12--9p0h12-9p0h12--9p0h12-7p0h10--7p0h10-7p0h10--7p0h10---|
C|---------------------------------------------------------------|
G|-------00-------------00-------------00-------------00---------|
C|-------00-------------00-------------00-------------00---------|
PM       ..             ..             ..             ..

(2:47-2:52)
D|-----------------------------------------------------------|
A|-----------------------------------------------------------|
F|-6p0h9--6p0h9-6p0h9--6p0h9-7p0h10--7p0h10-7p0h10--7p0h10---|
C|-----------------------------------------------------------|
G|------00-----------00------------00-------------00---------|
C|------00-----------00------------00-------------00---------|
PM      ..           ..            ..             ..

(2:52-2:57)
D|-------------------------------------------------------------------|
A|-------------------------------------------------------------------|
F|-9p0h12--9p0h12-9p0h12--9p0h12-10p0h14--10p0h14--10p0h14--10p0h14--|
C|-------------------------------------------------------------------|
G|-------00-------------00--------------00----------------00---------|
C|-------00-------------00--------------00----------------00---------|
PM       ..             ..              ..                ..

(2:57-3:10)
D|-----------------------------------------------------------|
A|-----------------------------------------------------------|
F|-----------------------------------------------------------|
C|-----------------------------------------------------------|
G|-5-5---5-5-5---5-5---5-5-5---1-1---1-1-1---0-0---0-0-0-----|
C|-----0-------0-----0-------0-----0-------0-----0-----------|x2
PM     .       .     .       .     .       .     .

(3:10-3:18)
D|--------------------------------------------------------------|
A|--------------------------------------------------------------|
F|--------------------------------------------------------------|
C|-7-7---7-7-7---7-7---7-7-7---8-8---8-8-8---11-11---11-11-11---|
G|-----0-------0-----0-------0-----0-------0-------0------------|
C|-----0-------0-----0-------0-----0-------0-------0------------|
PM     .       .     .       .       .     .       .

(3:18-3:25)
D|--------------------------------------------------------------|
A|--------------------------------------------------------------|
F|-------------------------------------------------------14    

Added On December 16th, 2013

SHARE

Comments

blog comments powered by Disqus

ADVERTISEMENT