Augustana Tabs

Dust

1 versions

TAB

            Ok, for the record, this is, as far as I know, the only tab for Dust.  This is also my
tab.  I'm posting this in hopes that someone can take it and figure out the solo(s).
being said, this works very well for acoustic. Capo 3rd fret.  Relative to capo.

Intro/First Chorus(on the record, there's nothing played here, but live there's a piano,
here's that tabbed for guitar, for piano, the chords names are F minor, D#Major, and A#Major).

e|--5~-------3~----------------------------5~-------3~----------------0-|
B|--6~-------5~--------3~------------------6~-------5~-------3~-------1-|
G|--7~-------5~--------4~---4h5------------7~-------5~-------4~-------2-|
D|--7~-------5~--------5~------------------7~-------5~-------5~-------2-|
A|--5~-------3~--------5~------------------5~-------3~-------5~-------0-|
E|---------------------3~---------(x3)-----------------------3~-------x-|
 So go on and tear it up                  But he don't show up anymore
 Black and cold with the dust
 Cause I believed in the lord


Verse 1

e|------0------0------0------0------0------0------0------0-|
B|------1------1------1------1------1------1------1------1-|
G|------2------2------2------2------2------2------2------2-|
D|------2------2------2------2------2------2------2------2-|
A|--0-0-0--0-0-0--0-0-0--0-0-0--0-0-0--0-0-0--0-0-0--0-0-0-|
E|---------------------------------------------------------|
Mute    x      x      x      x      x      x      x      x
                              If you can't trust the wind...

e|----------------------------------1------1------1------1-----|
B|------0------0------0------0------3------3------3------3-----|
G|------0------0------0------0------2------2------2------2-----|
D|------0------0------0------0--0-0-0--0-0-0--0-0-0--0-0-0-----|
A|------2------2------2------2---------------------------------|
E|--3-3-3--3-3-3--3-3-3--3-3-3---------------------------------|
Mute    x      x      x      x      x      x      x      x
     If you can't love sin...       If I begin would you let me


e|------0------0------0------0------0------0------0------0-|
B|------1------1------1------1------1------1------1------1-|
G|------0------0------0------0------2------2------2------2-|
D|------2------2------2------2------2------2------2------2-|
A|--3-3-3--3-3-3--3-3-3--3-3-3--0-0-0--0-0-0--0-0-0--0-0-0-|
E|---------------------------------------------------------|
Mute    x      x      x      x      x      x      x      x
...finish up                       If I fell down....


e|----------------------------------1------1------1------1-----|
B|------0------0------0------0------3------3------3------3-----|
G|------0------0------0------0------2------2------2------2-----|
D|------0------0------0------0--0-0-0--0-0-0--0-0-0--0-0-0-----|
A|------2------2------2------2---------------------------------|
E|--3-3-3--3-3-3--3-3-3--3-3-3---------------------------------|
Mute    x      x      x      x      x      x      x      x

If I don't drink from a...   ...like you, would you say so long...

e|-----0--0--0--0--0--0--0--0-|
B|-----1--1--1--1--1--1--1--1-|
G|-----0--0--0--0--0--0--0--0-|
D|-----2--2- 2--2--2--2--2--2-|
A|-----3--3--3--3--3--3--3--3-|
E|----------------------------|
     (Build up)

Chorus
(Strum these chords)
e|-----1-------0-------0--------3------------------------------|
B|-----3-------1-------0--------1------------------------------|
G|-----2-------0-------0--------0------------------------------|
D|-----0-------2-------0--------0------------------------------|
A|-------------3-------2--------2------------------------------|
E|---------------------3--------3---(x4)-----------------------|
     Sooooo go on and tear it up.....

And from there it repeats....
The bridges repeat the chords from the verse, but with just normal strumming

Please try and figure out the solos with this, and email me any corrections and
such yowazup13@yahoo.com


So Go on and tear it up
Black and cold with the dust
Cause I believed in the Lord
But he don't show up anymore

If you can't trust the wind,
Who can you trust?
If you can't love sin,
Who can you love?
If I begin will you let me finish up?
If I fell down would you pick me up?
If I don't drink from a silver cup, like you
Would you say so long, farewell, goodluck?

So Go on and tear it up
Black and cold with the dust
Cause I believed in the Lord
But he don't show up anymore

If a man can't lie,
How can he speak?
If the sun don't rise,
Would the moon be out of reach?
If I came home
Would you get down on your knees?

So Go on and tear it up
Black and cold with the dust
I believed in the Lord
But he don't show up anymore

Cause I believed in the Lord
Said I don't wanna know
Cause I believed in the lord
Said I don't wanna know
I believed in the lord
He don't show up
He don't show up
He don't show up anymore
Anymore    

Added On December 16th, 2013

SHARE

Comments

blog comments powered by Disqus

ADVERTISEMENT