Backstreet Boys Tabs

Larger Than Life

5 versions

TAB

            Larger Than Life Chords by Backstreet Boys

T1: Danny Spencer, DSpe528403@aol.com, Backstreet Boys, Larger than
Life, ?????????????

S2: This is a great dance song done by the most popular group in the
world. Have fun with it. Enjoy!!!!!!!!!!!!

S1: 

intro
1--------------------   
2-----4----------4---   (3 times)
3-5-5---5----3-5---5-   then go to
4--------------------  the below part.
5--------------------   
6--------------------   

1--------------------
2-3---4-3------------
3---5-----5-3-5------
4--------------------
5--------------------
6--------------------




VERSE 1:
Cm
Cm
e |---|---|---|---|---|
B |-x-|---|---|---|---|
G |---|---|---|---|---|
D |-x-|---|---|---|---|
A |---|---|-x-|---|---|
E |---|---|---|---|---|
Bb
Bb
e |---|---|---|---|---|
B |---|---|-x-|---|---|
G |---|---|-x-|---|---|
D |---|---|-x-|---|---|
A |-x-|---|---|---|---|
E |---|---|---|---|---|
F
F
e |-x-|---|---|---|---|
B |-x-|---|---|---|---|
G |---|-x-|---|---|---|
D |---|---|-x-|---|---|
A |---|---|-x-|---|---|
E |-x-|---|---|---|---|
Cm
Cm
e |---|---|---|---|---|
B |-x-|---|---|---|---|
G |---|---|---|---|---|
D |-x-|---|---|---|---|
A |---|---|-x-|---|---|
E |---|---|---|---|---|
I may run and hide when you're screaming my name alright Cm
Cm
e |---|---|---|---|---|
B |-x-|---|---|---|---|
G |---|---|---|---|---|
D |-x-|---|---|---|---|
A |---|---|-x-|---|---|
E |---|---|---|---|---|
Bb
Bb
e |---|---|---|---|---|
B |---|---|-x-|---|---|
G |---|---|-x-|---|---|
D |---|---|-x-|---|---|
A |-x-|---|---|---|---|
E |---|---|---|---|---|
F
F
e |-x-|---|---|---|---|
B |-x-|---|---|---|---|
G |---|-x-|---|---|---|
D |---|---|-x-|---|---|
A |---|---|-x-|---|---|
E |-x-|---|---|---|---|
Cm
Cm
e |---|---|---|---|---|
B |-x-|---|---|---|---|
G |---|---|---|---|---|
D |-x-|---|---|---|---|
A |---|---|-x-|---|---|
E |---|---|---|---|---|
But let me tell you now there are prices to fame alright Ab
Ab
e |---|---|---|-x-|---|
B |-x-|---|---|---|---|
G |-x-|---|---|---|---|
D |-x-|---|---|---|---|
A |---|---|---|---|---|
E |---|---|---|---|---|
Bb
Bb
e |---|---|---|---|---|
B |---|---|-x-|---|---|
G |---|---|-x-|---|---|
D |---|---|-x-|---|---|
A |-x-|---|---|---|---|
E |---|---|---|---|---|
Ab
Ab
e |---|---|---|-x-|---|
B |-x-|---|---|---|---|
G |-x-|---|---|---|---|
D |-x-|---|---|---|---|
A |---|---|---|---|---|
E |---|---|---|---|---|
Bb
Bb
e |---|---|---|---|---|
B |---|---|-x-|---|---|
G |---|---|-x-|---|---|
D |---|---|-x-|---|---|
A |-x-|---|---|---|---|
E |---|---|---|---|---|
Cause all of our time spent in flashes of light (To Chorus) CHORUS: Cm
Cm
e |---|---|---|---|---|
B |-x-|---|---|---|---|
G |---|---|---|---|---|
D |-x-|---|---|---|---|
A |---|---|-x-|---|---|
E |---|---|---|---|---|
Bb
Bb
e |---|---|---|---|---|
B |---|---|-x-|---|---|
G |---|---|-x-|---|---|
D |---|---|-x-|---|---|
A |-x-|---|---|---|---|
E |---|---|---|---|---|
F
F
e |-x-|---|---|---|---|
B |-x-|---|---|---|---|
G |---|-x-|---|---|---|
D |---|---|-x-|---|---|
A |---|---|-x-|---|---|
E |-x-|---|---|---|---|
All you people can't you see can't you see Cm
Cm
e |---|---|---|---|---|
B |-x-|---|---|---|---|
G |---|---|---|---|---|
D |-x-|---|---|---|---|
A |---|---|-x-|---|---|
E |---|---|---|---|---|
Bb
Bb
e |---|---|---|---|---|
B |---|---|-x-|---|---|
G |---|---|-x-|---|---|
D |---|---|-x-|---|---|
A |-x-|---|---|---|---|
E |---|---|---|---|---|
F
F
e |-x-|---|---|---|---|
B |-x-|---|---|---|---|
G |---|-x-|---|---|---|
D |---|---|-x-|---|---|
A |---|---|-x-|---|---|
E |-x-|---|---|---|---|
How your love is affecting our reality Cm
Cm
e |---|---|---|---|---|
B |-x-|---|---|---|---|
G |---|---|---|---|---|
D |-x-|---|---|---|---|
A |---|---|-x-|---|---|
E |---|---|---|---|---|
Bb
Bb
e |---|---|---|---|---|
B |---|---|-x-|---|---|
G |---|---|-x-|---|---|
D |---|---|-x-|---|---|
A |-x-|---|---|---|---|
E |---|---|---|---|---|
F
F
e |-x-|---|---|---|---|
B |-x-|---|---|---|---|
G |---|-x-|---|---|---|
D |---|---|-x-|---|---|
A |---|---|-x-|---|---|
E |-x-|---|---|---|---|
Every time we're down you can make it right Ab
Ab
e |---|---|---|-x-|---|
B |-x-|---|---|---|---|
G |-x-|---|---|---|---|
D |-x-|---|---|---|---|
A |---|---|---|---|---|
E |---|---|---|---|---|
Bb
Bb
e |---|---|---|---|---|
B |---|---|-x-|---|---|
G |---|---|-x-|---|---|
D |---|---|-x-|---|---|
A |-x-|---|---|---|---|
E |---|---|---|---|---|
Cm
Cm
e |---|---|---|---|---|
B |-x-|---|---|---|---|
G |---|---|---|---|---|
D |-x-|---|---|---|---|
A |---|---|-x-|---|---|
E |---|---|---|---|---|
and that makes you larger than life VERSE 2: Cm
Cm
e |---|---|---|---|---|
B |-x-|---|---|---|---|
G |---|---|---|---|---|
D |-x-|---|---|---|---|
A |---|---|-x-|---|---|
E |---|---|---|---|---|
Bb
Bb
e |---|---|---|---|---|
B |---|---|-x-|---|---|
G |---|---|-x-|---|---|
D |---|---|-x-|---|---|
A |-x-|---|---|---|---|
E |---|---|---|---|---|
F
F
e |-x-|---|---|---|---|
B |-x-|---|---|---|---|
G |---|-x-|---|---|---|
D |---|---|-x-|---|---|
A |---|---|-x-|---|---|
E |-x-|---|---|---|---|
Cm
Cm
e |---|---|---|---|---|
B |-x-|---|---|---|---|
G |---|---|---|---|---|
D |-x-|---|---|---|---|
A |---|---|-x-|---|---|
E |---|---|---|---|---|
Looking at the crowd and I see your body sway come on Cm
Cm
e |---|---|---|---|---|
B |-x-|---|---|---|---|
G |---|---|---|---|---|
D |-x-|---|---|---|---|
A |---|---|-x-|---|---|
E |---|---|---|---|---|
Bb
Bb
e |---|---|---|---|---|
B |---|---|-x-|---|---|
G |---|---|-x-|---|---|
D |---|---|-x-|---|---|
A |-x-|---|---|---|---|
E |---|---|---|---|---|
F
F
e |-x-|---|---|---|---|
B |-x-|---|---|---|---|
G |---|-x-|---|---|---|
D |---|---|-x-|---|---|
A |---|---|-x-|---|---|
E |-x-|---|---|---|---|
Cm
Cm
e |---|---|---|---|---|
B |-x-|---|---|---|---|
G |---|---|---|---|---|
D |-x-|---|---|---|---|
A |---|---|-x-|---|---|
E |---|---|---|---|---|
Wishing I could thank you in a different way come on Ab
Ab
e |---|---|---|-x-|---|
B |-x-|---|---|---|---|
G |-x-|---|---|---|---|
D |-x-|---|---|---|---|
A |---|---|---|---|---|
E |---|---|---|---|---|
Bb
Bb
e |---|---|---|---|---|
B |---|---|-x-|---|---|
G |---|---|-x-|---|---|
D |---|---|-x-|---|---|
A |-x-|---|---|---|---|
E |---|---|---|---|---|
Ab
Ab
e |---|---|---|-x-|---|
B |-x-|---|---|---|---|
G |-x-|---|---|---|---|
D |-x-|---|---|---|---|
A |---|---|---|---|---|
E |---|---|---|---|---|
Bb
Bb
e |---|---|---|---|---|
B |---|---|-x-|---|---|
G |---|---|-x-|---|---|
D |---|---|-x-|---|---|
A |-x-|---|---|---|---|
E |---|---|---|---|---|
all of your time spent keeps us alive (To Chorus) BRIDGE: Cm
Cm
e |---|---|---|---|---|
B |-x-|---|---|---|---|
G |---|---|---|---|---|
D |-x-|---|---|---|---|
A |---|---|-x-|---|---|
E |---|---|---|---|---|
Gm
Gm
e |---|---|-x-|---|---|
B |---|---|-x-|---|---|
G |---|---|-x-|---|---|
D |---|---|---|---|-x-|
A |---|---|---|---|-x-|
E |---|---|-x-|---|---|
(-G) Bb
Bb
e |---|---|---|---|---|
B |---|---|-x-|---|---|
G |---|---|-x-|---|---|
D |---|---|-x-|---|---|
A |-x-|---|---|---|---|
E |---|---|---|---|---|
F
F
e |-x-|---|---|---|---|
B |-x-|---|---|---|---|
G |---|-x-|---|---|---|
D |---|---|-x-|---|---|
A |---|---|-x-|---|---|
E |-x-|---|---|---|---|
Ou-------Ou-------Ou-------Ou Cm
Cm
e |---|---|---|---|---|
B |-x-|---|---|---|---|
G |---|---|---|---|---|
D |-x-|---|---|---|---|
A |---|---|-x-|---|---|
E |---|---|---|---|---|
Gm
Gm
e |---|---|-x-|---|---|
B |---|---|-x-|---|---|
G |---|---|-x-|---|---|
D |---|---|---|---|-x-|
A |---|---|---|---|-x-|
E |---|---|-x-|---|---|
(-G) Ab
Ab
e |---|---|---|-x-|---|
B |-x-|---|---|---|---|
G |-x-|---|---|---|---|
D |-x-|---|---|---|---|
A |---|---|---|---|---|
E |---|---|---|---|---|
Bb
Bb
e |---|---|---|---|---|
B |---|---|-x-|---|---|
G |---|---|-x-|---|---|
D |---|---|-x-|---|---|
A |-x-|---|---|---|---|
E |---|---|---|---|---|
All of your time spent keeps us alive Solo Chords: Cm
Cm
e |---|---|---|---|---|
B |-x-|---|---|---|---|
G |---|---|---|---|---|
D |-x-|---|---|---|---|
A |---|---|-x-|---|---|
E |---|---|---|---|---|
Bb
Bb
e |---|---|---|---|---|
B |---|---|-x-|---|---|
G |---|---|-x-|---|---|
D |---|---|-x-|---|---|
A |-x-|---|---|---|---|
E |---|---|---|---|---|
F
F
e |-x-|---|---|---|---|
B |-x-|---|---|---|---|
G |---|-x-|---|---|---|
D |---|---|-x-|---|---|
A |---|---|-x-|---|---|
E |-x-|---|---|---|---|
(3x) Ab
Ab
e |---|---|---|-x-|---|
B |-x-|---|---|---|---|
G |-x-|---|---|---|---|
D |-x-|---|---|---|---|
A |---|---|---|---|---|
E |---|---|---|---|---|
Bb
Bb
e |---|---|---|---|---|
B |---|---|-x-|---|---|
G |---|---|-x-|---|---|
D |---|---|-x-|---|---|
A |-x-|---|---|---|---|
E |---|---|---|---|---|
*In the ending they fade out with the chorus doing there own singing things.

Added On December 4th, 2013

SHARE

Comments

blog comments powered by Disqus