Bad Brains Tabs

How Low Can A Punk Get

2 versions

TAB

            Bad Brains – How Low Can A Punk Get

    1x
e\---------------------------------------------------/ 
B\---------------------------------------------------/
G\--3-5-8--------------------------------------------/
D\--3-5-8--------------------------------------------/
A\--1-3-6--------------------------------------------/
E\---------------------------------------------------/

    6x
e\---------------------------------------------------/ 
B\---------------------------------------------------/
G\--5-----4-3-----2----------------------------------/
D\--5-5-4-4-3-3-2-2-6-6-6-6-6-6-6-6-6-6-6-6-6-6-6-6--/
A\--3-5-4-2-1-3-2-0-6-6-6-6-6-6-6-6-6-6-6-6-6-6-6-6--/
E\----3-2-----1-0---4-4-4-4-4-4-4-4-4-4-4-4-4-4-4-4--/
                        
    8x
e\---------------------------------------------------/
B\---------------------------------------------------/
G\--3-3-5-8-8-8-8------------------------------------/
D\--3-3-5-8-8-8-8------------------------------------/
A\--1-1-3-6-6-6-6------------------------------------/
E\---------------------------------------------------/

    4x
e\---------------------------------------------------/ 
B\---------------------------------------------------/
G\--5-----4-3-----2----------------------------------/
D\--5-5-4-4-3-3-2-2-6-6-6-6-6-6-6-6-6-6-6-6-6-6-6-6--/
A\--3-5-4-2-1-3-2-0-6-6-6-6-6-6-6-6-6-6-6-6-6-6-6-6--/
E\----3-2-----1-0---4-4-4-4-4-4-4-4-4-4-4-4-4-4-4-4--/
                       
    8x
e\---------------------------------------------------/
B\---------------------------------------------------/
G\--3-3-5-8-8-8-8------------------------------------/
D\--3-3-5-8-8-8-8------------------------------------/
A\--1-1-3-6-6-6-6------------------------------------/
E\---------------------------------------------------/

    4x
e\---------------------------------------------------/ 
B\---------------------------------------------------/
G\--5-----4-3-----2----------------------------------/
D\--5-5-4-4-3-3-2-2-6-6-6-6-6-6-6-6-6-6-6-6-6-6-6-6--/
A\--3-5-4-2-1-3-2-0-6-6-6-6-6-6-6-6-6-6-6-6-6-6-6-6--/
E\----3-2-----1-0---4-4-4-4-4-4-4-4-4-4-4-4-4-4-4-4--/
                      
     8x
e\---------------------------------------------------/
B\---------------------------------------------------/
G\--3-3-5-8-8-8-8------------------------------------/
D\--3-3-5-8-8-8-8------------------------------------/
A\--1-1-3-6-6-6-6------------------------------------/
E\---------------------------------------------------/


     1x
e\---------------------------------------------------/
B\---------------------------------------------------/
G\--5-5-5-5-----------------4------------------------/
D\--5-5-5-5-5-5-5-5-4-4-4-4-4------------------------/
A\--3-3-3-3-5-5-5-5-4-4-4-4-2------------------------/
E\----------3-3-3-3-2-2-2-2--------------------------/    

Added On December 16th, 2013

SHARE

Comments

blog comments powered by Disqus

VERSIONS

ADVERTISEMENT