Bad Company Tabs

Shooting Star

3 versions

TAB

            Shooting Star Chords by Bad Company

#----------------------------------PLEASE NOTE---------------------------------#
#This file is the author's own work and represents their interpretation of the #
#song. You may only use this file for private study, scholarship, or research. #
#------------------------------------------------------------------------------##
>From: VETTERS@VAX1.ELON.EDU (Steve Vetter  )

ARTIST: Bad Company
SONG:   Shooting Star
CRDs and part of the riff by Randy Reed
other part of the riff by Kirk ?
typing by Steve Vetter

Intro: (sometimes I skip the hammer-on/pull-off part)

-9-h10p9------------3--2--0--2---------------|
-10-10-10-----------3--3--3--3---------------|
-9---9-9----2h3p2---2--2--2--2---------------|
------------2h4p2---0--0--0--0---------------|
---------------------------------------------|
---------------------------------------------|

Alternate between the two.  I left my guitar at home so here's an
approximation of chord locations.
|A
A
e |---|---|---|---|---|
B |---|-x-|---|---|---|
G |---|-x-|---|---|---|
D |---|-x-|---|---|---|
A |---|---|---|---|---|
E |---|---|---|---|---|
|E
E
e |---|---|---|---|---|
B |---|---|---|---|---|
G |-x-|---|---|---|---|
D |---|-x-|---|---|---|
A |---|-x-|---|---|---|
E |---|---|---|---|---|
|D
D
e |---|-x-|---|---|---|
B |---|---|-x-|---|---|
G |---|-x-|---|---|---|
D |---|---|---|---|---|
A |---|---|---|---|---|
E |---|---|---|---|---|
|A
A
e |---|---|---|---|---|
B |---|-x-|---|---|---|
G |---|-x-|---|---|---|
D |---|-x-|---|---|---|
A |---|---|---|---|---|
E |---|---|---|---|---|
| |A
A
e |---|---|---|---|---|
B |---|-x-|---|---|---|
G |---|-x-|---|---|---|
D |---|-x-|---|---|---|
A |---|---|---|---|---|
E |---|---|---|---|---|
|E
E
e |---|---|---|---|---|
B |---|---|---|---|---|
G |-x-|---|---|---|---|
D |---|-x-|---|---|---|
A |---|-x-|---|---|---|
E |---|---|---|---|---|
|G
G
e |---|---|-x-|---|---|
B |---|---|---|---|---|
G |---|---|---|---|---|
D |---|---|---|---|---|
A |---|-x-|---|---|---|
E |---|---|-x-|---|---|
|A
A
e |---|---|---|---|---|
B |---|-x-|---|---|---|
G |---|-x-|---|---|---|
D |---|-x-|---|---|---|
A |---|---|---|---|---|
E |---|---|---|---|---|
| A
A
e |---|---|---|---|---|
B |---|-x-|---|---|---|
G |---|-x-|---|---|---|
D |---|-x-|---|---|---|
A |---|---|---|---|---|
E |---|---|---|---|---|
E
E
e |---|---|---|---|---|
B |---|---|---|---|---|
G |-x-|---|---|---|---|
D |---|-x-|---|---|---|
A |---|-x-|---|---|---|
E |---|---|---|---|---|
D
D
e |---|-x-|---|---|---|
B |---|---|-x-|---|---|
G |---|-x-|---|---|---|
D |---|---|---|---|---|
A |---|---|---|---|---|
E |---|---|---|---|---|
A
A
e |---|---|---|---|---|
B |---|-x-|---|---|---|
G |---|-x-|---|---|---|
D |---|-x-|---|---|---|
A |---|---|---|---|---|
E |---|---|---|---|---|
Johnny was a school boy when he heard his first Beatles song A
A
e |---|---|---|---|---|
B |---|-x-|---|---|---|
G |---|-x-|---|---|---|
D |---|-x-|---|---|---|
A |---|---|---|---|---|
E |---|---|---|---|---|
E
E
e |---|---|---|---|---|
B |---|---|---|---|---|
G |-x-|---|---|---|---|
D |---|-x-|---|---|---|
A |---|-x-|---|---|---|
E |---|---|---|---|---|
G
G
e |---|---|-x-|---|---|
B |---|---|---|---|---|
G |---|---|---|---|---|
D |---|---|---|---|---|
A |---|-x-|---|---|---|
E |---|---|-x-|---|---|
A
A
e |---|---|---|---|---|
B |---|-x-|---|---|---|
G |---|-x-|---|---|---|
D |---|-x-|---|---|---|
A |---|---|---|---|---|
E |---|---|---|---|---|
Love Me Do, I think it was and from there it didn't take him long Got himself a guitar, used to play every night Now he's in a rock & roll outfit, and everything's all right A
A
e |---|---|---|---|---|
B |---|-x-|---|---|---|
G |---|-x-|---|---|---|
D |---|-x-|---|---|---|
A |---|---|---|---|---|
E |---|---|---|---|---|
E
E
e |---|---|---|---|---|
B |---|---|---|---|---|
G |-x-|---|---|---|---|
D |---|-x-|---|---|---|
A |---|-x-|---|---|---|
E |---|---|---|---|---|
Don't you know? Johnny told his Momma, Hey Momma I'm goin' away I'm gonna hit the big time, gonna be a big star someday Momma came to the door with a tear drop in her eye Johnny said, Don't cry Momma smile & wave goodbye Don't you know, yeah, yeah Don't you know that you are a shooting star Don't you know, don't you know Don't you know that you are a shooting star And all the world will love you just as long As long as you are Johnny made a record, went straight up to number one Suddenly everyone loved to hear him sing the song Watching the world go by, surprisin' it goes so fast Johnny looked around him and said, Well, I made the big time at last Don't you know, don't you know Don't you know that you are a shooting star Don't you know, woah yeah Don't you know that you are a shooting star, yeah And all the world will love you just as long As long as you are, a shooting star (guitar solo) Don't you know that you are a shooting star Don't you know, ahhh Don't you know that you are a shooting star And all the world will love you just as long As long as you are Johnny died one night, died in his bed Bottle of whiskey, sleepin' tablets by his head Johnny's life passed him by like a warm summer day If you listen to the wind, you can still hear him play Woah... Don't you know that you are a shooting star Don't you know, don't you know Don't you know that you are a shooting star Don't you know Don't you know that you are a shooting star Don't you, don't you, don't you, don't you, don't you know Don't you know you are a shooting star (improvise) Na, na, na, na.. (to end) 

Added On December 4th, 2013

SHARE

Comments

blog comments powered by Disqus

VERSIONS

ADVERTISEMENT