Beach Boys Tabs

Forever

4 versions

TAB

            Forever Tab by Beach Boys


beach boys-forever
full house (jesse's wedding)
(ddashboardemoguy@aol.com)

VERSE
e----2----------------------------------------------|
b----3----------------------------------------------|
g----2---------4------------------------------------|
d---------4----4----4----5----4----2----------------|
a---------4----2----4----5----4----2----------------|
E---------2---------2----3----2---------------------|


CHROUS
e--------------------------------------------------|
b--------------------------------------------------|
g--------------------------------------------------|
d----5----6----------------------------------------|
a----5----6----------------------------------------|
E----3----4----------------------------------------|

VERSE-
If every word I said
Could make you laugh
I'd talk forever

I ask the sky
just what we had
Mmmmmmmm It shone forever

If the song I sing to you
Could fill your heart with joy
I'd sing forever

CHORUS-
Forever,Forever

VERSE-
I've been so happy loving you
Do do do do do do do do do do
together my love

Let the love I have for you,
live in your heart
And beat forever (together my love)

CHORUS-
Forever,Forever

VERSE-
I've been so happy loving you
Baby just let me sing it my baby
I wanna be singin' my baby
Baby baby baby my baby
I wanna be singin' my baby
Woah, na na na

So I'm goin' away,
Mmmmmm but not forever
Na na na na
I gotta love you any old way
Forever    

Added On December 4th, 2013

SHARE

Comments

blog comments powered by Disqus

VERSIONS

ADVERTISEMENT