Beatles Tabs

All You Need Is Love

6 versions

TAB

            All You Need Is Love Tab by Beatles


---------------------------------------------------------------------

  THE BEATLES - ALL YOU NEED IS LOVE  (Lennon/McCartney)  Released as 
                a single with BABY YOU'RE A RICH MAN as the B side on 
                7th July 1967.
                
---------------------------------------------------------------------

  Tabbed by:PJVillanueva





Love, Love, Love.
Love, Love, Love.
Love, Love, Love.

There's nothing you can do that can't be done.
Nothing you can sing that can't be sung.
Nothing you can say but you can learn how to play the game.
It's easy.

Nothing you can make that can't be made.
No one you can save that can't be saved.
Nothing you can do but you can learn how to be you in time.
It's easy.

All you need is love.
All you need is love.
All you need is love, love.
Love is all you need.

Guitar solo

All you need is love.
All you need is love.
All you need is love, love.
Love is all you need.

Nothing you can know that isn't known.
Nothing you can see that isn't shown.
Nowhere you can be that isn't where you're meant to be.
It's easy.

All you need is love.
All you need is love.
All you need is love, love.
Love is all you need.

All you need is love (All together, now!)
All you need is love. (Everybody!)
All you need is love, love.
Love is all you need (love is all you need).

Yee-hai!
Oh yeah!
She loves you, yeah yeah yeah.
She loves you, yeah yeah yeah.





  "La Marseillaise" Intro

  4/4 Time                                     x x xxxxxxxxxxxxxxxxxxxxxx
                                      G                 D 
                             D   D7sus2
e|-------- -------- -------- ------0-|3------- 3------- 5------- 5-------|
B|---------------------------3-----1-|3--------3--------7--------7-------|
G|---------------------------2-----2-|0--------0--------7--------7-------|
D|---------------------------0-------|-----------------------------------|
A|-----------------------------------|-----------------------------------|
E|-----------------------------------|-----------------------------------|




  xxxxxxxxxxxxxxxxxxxxxxxxxxxxxxxxxxxxxxxxxxxxxxxxxxxxxxx
  G                                   Am       D7                 HPHPHPH
e|10------ -------- -------- --------|-------- 8------- -------7P57575757|
B|12------------12-----------12----8-|5--------7-----------------7-------|
G|12------------12--12----12-12----7-|5--------7-----------------7-------|
D|------------------12----12---------|------7----------------------------|
A|-----------------------------------|-----------------------------------|
E|-----------------------------------|-----------------------------------|



  00:08
                                      3/4 Time
  G                 Gmaj7             Em7
e|3------- 3------- 3------- 3-------|3------- 3------- 3-----3-|
B|3--------3--------3--------3-------|3--------3--------3-----3-|
G|0--------0--------0--------0-------|0--------0--------0-----0-|
D|0--------0--------0--------0-------|2--------2--------0-----2-|
A|2--------2--------2--------2-------|2--------2--------2-----2-|
E|3--------3--------2--------2-------|0--------0--------0-----0-|
  Love,             Love,             Love.
e|7------- 7------- 7------- 7-------|7------- 7------- --------|
B|8--------8--------7--------7-------|5--------5----------------|
G|7--------7--------7--------7-------|7--------7--------7-----9-|
D|-----------------------------------|--------------------------|
A|-----------------------------------|------------------5-----7-|
E|-----------------------------------|--------------------------|



  4/4                                 3/4

  G                 Gmaj7             Em7
e|3------- 3------- 3------- 3-------|3------- 3------- 3-----3-|
B|3--------3--------3--------3-------|3--------3--------3-----3-|
G|0--------0--------0--------0-------|0--------0--------0-----0-|
D|0--------0--------0--------0-------|2--------2--------0-----2-|
A|2--------2--------2--------2-------|2--------2--------2-----2-|
E|3--------3--------2--------2-------|0--------0--------0-----0-|
  Love,             Love,             Love.
e|7------- 7------- 7------- 7-------|7------- 7------- --------|
B|8--------8--------7--------7-------|5--------5----------------|
G|7--------7--------7--------7-------|7--------7--------7-----9-|
D|-----------------------------------|--------------------------|
A|-----------------------------------|------------------5-----7-|
E|-----------------------------------|--------------------------|



  4/4 

  Am                Am7              Am6                Am
e|0------- 0------- 0------- 0-------|0------- 0------- 0------- 0-------|
B|1--------1--------1--------1-------|1--------1--------1--------1-------|
G|2--------2--------2--------2-------|2--------2--------2--------2-------|
D|2--------2--------2--------2-------|2--------2--------2--------2-------|
A|0--------0-------------------------|-----------------------------------|
E|------------------3--------3-------|2--------2--------0--------0-------|
  Love,           Love,           Love.
e|8------- 8------- 8------- 8-------|10------ 10------ 8------- 8-------|
B|10-------10-------8--------8-------|10-------10-------8--------8-------|
G|9--------9--------9--------9-------|11-------11-------9--------9-------|
D|-----------------------------------|-----------------------------------|
A|-----------------------------------|-----------------------------------|
E|-----------------------------------|-----------------------------------|
           
e|-------- -------- -------- --------|-------- -------- -------- --------|
B|10----------------8----------------|7----------------------------------|
G|-----------------------------------|------------------9----------------|
D|7-----------------5----------------|4----------------------------------|
A|-----------------------------------|------------------7----------------|
E|-----------------------------------|-----------------------------------|



                                      3/4
  
  D                 D7                D6   D7  D              Dadd9
e|2------- 2------- 2------- 2-------|2------- 2------- 2-------|
B|3--------3--------3--------3-------|3--------3--------3-------|
G|2--------2--------2--------2-------|2--------2--------2-------|
D|0--------0-------------------------|0--------0--------0-----2-|
A|------------------3--------3-------|2-----3-------------------|
E|-----------------------------------|--------------------------|

e|5------- ------5- 5------- 5-------|-------- -------- --------|
B|7--------7--------7--------7-------|--------------------------|
G|7--------7--------5--------5-------|4-----5--7--------7-----9-|
D|-----------------------------------|--------------------------|
A|-----------------------------------|2-----3--5--------5-----7-|
E|-----------------------------------|--------------------------|

e|-------- -------- -------- --------|-------- -------- --------|
B|-----------------------------------|--------------------------|
G|7-----------------5----------------|4-----5--7--------7-----9-|
D|-----------------------------------|--------------------------|
A|5-----------------3----------------|2-----3--5--------5-----7-|
E|-----------------------------------|--------------------------|



  4/4                                 3/4
  00:26

e|3------- 3------- 3------- 3-------|3------- 3------- 3-----3-|
B|3--------3--------3--------3-------|3--------3--------3-----3-|
G|0--------0--------0--------0-------|0--------0--------0-----0-|
D|0--------0--------0--------0-------|2--------2--------0-----2-|
A|2--------2--------2--------2-------|2--------2--------2-----2-|
E|3--------3--------2--------2-------|0--------0--------0-----0-|
   There's nothing 
  (Love)        you can do that 
                             can't be 
                                   done
e|7------- 7------- 7------- 7-------|7------- 7------- --------|
B|8--------8--------7--------7-------|5--------5----------------|
G|7--------7--------7--------7-------|7--------7--------7-----9-|
D|-----------------------------------|--------------------------|
A|-----------------------------------|------------------5-----7-|
E|-----------------------------------|--------------------------|

e|-------- -------- -------- --------|-------- -------- --------|
B|8----------------------------------|--------------------------|
G|-----------------------------------|--------------------------|
D|5----------------------------------|--------------------------|
A|-----------------------------------|--------------------------|
E|-----------------------------------|--------------------------|



  4/4                                 3/4


e|3------- 3------- 3------- 3-------|3------- 3------- 3-----3-|
B|3--------3--------3--------3-------|3--------3--------3-----3-|
G|0--------0--------0--------0-------|0--------0--------0-----0-|
D|0--------0--------0--------0-------|2--------2--------0-----2-|
A|2--------2--------2--------2-------|2--------2--------2-----2-|
E|3--------3--------2--------2-------|0--------0--------0-----0-|
           Nothing   
  (Love)        you can sing
                        that can't be sung
e|7------- 7------- 7------- 7-------|7------- 7------- --------|
B|8--------8--------7--------7-------|5--------5----------------|
G|7--------7--------7--------7-------|7--------7--------7-----9-|
D|-----------------------------------|--------------------------|
A|-----------------------------------|------------------5-----7-|
E|-----------------------------------|--------------------------|



  4/4 

                                      
e|0------- 0------- 0------- 0-------|0------- 0------- 0------- 0-------|
B|1--------1--------1--------1-------|1--------1--------1--------1-------|
G|2--------2--------2--------2-------|2--------2--------2--------2-------|
D|2--------2--------2--------2-------|2--------2--------2--------2-------|
A|0--------0-------------------------|-----------------------------------|
E|------------------3--------3-------|2--------2--------0--------0-------|
           Nothing you          
  (Love)            can say
                         but you can 
                                  learn how to play 
                                                 the game.            It's
e|8------- 8------- 8------- 8-------|8------- 8------- 8------- 8-------|
B|10-------10-------8--------8-------|7--------7--------5--------5-------|
G|9--------9--------9--------9-------|7--------7--------7--------7-------|
D|-----------------------------------|-----------------------------------|
A|-----------------------------------|-----------------------------------|
E|-----------------------------------|-----------------------------------|

e|-------- -------- -------- --------|-------- -------- -------- --------|
B|10----------------8----------------|7----------------------------------|
G|-----------------------------------|------------------9----------------|
D|7-----------------5----------------|4----------------------------------|
A|-----------------------------------|------------------7----------------|
E|-----------------------------------|-----------------------------------|



  4/4                                 3/4


e|2------- 2------- 2------- 2-------|2------- 2------- 2-------|
B|3--------3--------3--------3-------|3--------3--------3-------|
G|2--------2--------2--------2-------|2--------2--------2-------|
D|0--------0-------------------------|0--------0--------0-----2-|
A|------------------3--------3-------|2-----3-------------------|
E|-----------------------------------|--------------------------|
  easy
e|5------- 5------- 5------- 5-------|-------- -------- --------|
B|7--------7--------7--------7-------|--------------------------|
G|7--------7--------5--------5-------|4-----5--7--------7-----9-|
D|-----------------------------------|--------------------------|
A|-----------------------------------|2-----3--5--------5-----7-|
E|-----------------------------------|--------------------------|

e|-------- -------- -------- --------|-------- -------- --------|
B|-----------------------------------|--------------------------|
G|7--------7--------5-----5--5-------|4-----5--7--------7-----9-|
D|-----------------------------------|--------------------------|
A|5--------5--------3-----3--3-------|2-----3--5--------5-----7-|
E|-----------------------------------|--------------------------|




  00:44

e|3------- 3------- 3------- 3-------|3------- 3------- 3-----3-|
B|3--------3--------3--------3-------|3--------3--------3-----3-|
G|0--------0--------0--------0-------|0--------0--------0-----0-|
D|0--------0--------0--------0-------|2--------2--------0-----2-|
A|2--------2--------2--------2-------|2--------2--------2-----2-|
E|3--------3--------2--------2-------|0--------0--------0-----0-|
           Nothing you 
  (Love)            can make that  
                             can't be made.
e|7------- 7------- 7------- 7-------|7------- 7------- --------|
B|8--------8--------7--------7-------|5--------5----------------|
G|7--------7--------7--------7-------|7--------7--------7-----9-|
D|-----------------------------------|--------------------------|
A|-----------------------------------|------------------5-----7-|
E|-----------------------------------|--------------------------|






e|3------- 3------- 3------- 3-------|3------- 3------- 3-----3-|
B|3--------3--------3--------3-------|3--------3--------3-----3-|
G|0--------0--------0--------0-------|0--------0--------0-----0-|
D|0--------0--------0--------0-------|2--------2--------0-----2-|
A|2--------2--------2--------2-------|2--------2--------2-----2-|
E|3--------3--------2--------2-------|0--------0--------0-----0-|
           No one you          
  (Love)            can  save that    can't be saved.
e|7------- 7------- 7------- 7-------|7------- 7------- --------|
B|8--------8--------7--------7-------|5--------5----------------|
G|7--------7--------7--------7-------|7--------7--------7-----9-|
D|-----------------------------------|--------------------------|
A|-----------------------------------|------------------5-----7-|
E|-----------------------------------|--------------------------|



  4/4                             


e|0------- 0------- 0------- 0-------|0------- 0------- 0------- 0-------|
B|1--------1--------1--------1-------|1--------1--------1--------1-------|
G|2--------2--------2--------2-------|2--------2--------2--------2-------|
D|2--------2--------2--------2-------|2--------2--------2--------2-------|
A|0--------0-------------------------|-----------------------------------|
E|------------------3--------3-------|2--------2--------0--------0-------|
           Nothing you 
  (Love)            can do but you 
                                can learn how to be 
                                                 you in time.         It's
e|8------- 8------- 8------- 8-------|8------- 8------- 8------- 8-------|
B|10-------10-------8--------8-------|7--------7--------5--------5-------|
G|9--------9--------9--------9-------|7--------7--------7--------7-------|
D|-----------------------------------|-----------------------------------|
A|-----------------------------------|-----------------------------------|
E|-----------------------------------|-----------------------------------|

           

  4/4                                 3/4


e|2------- 2------- 2------- 2-------|2------- 2------- 2-------|
B|3--------3--------3--------3-------|3--------3--------3-------|
G|2--------2--------2--------2-------|2--------2--------2-------|
D|0--------0-------------------------|0--------0--------0-----2-|
A|------------------3--------3-------|2-----3-------------------|
E|-----------------------------------|--------------------------|
  easy
e|5------- 5------- 5------- 5-------|5------- 5------- 5-------|
B|7--------7--------7--------7-------|7--------7--------7-----5-|
G|7--------7--------5--------5-------|4-----5--7--------7-------|
D|-----------------------------------|--------------------------|
A|-----------------------------------|--------------------------|
E|-----------------------------------|--------------------------| 

e|-------- -------- -------- --------|-------- -------- --------|
B|-----------------------------------|--------------------------|
G|7--------7--------5-----5--5-------|4-----5--7--------7-----9-|
D|-----------------------------------|--------------------------|
A|5--------5--------3-----3--3-------|2-----3--5--------5-----7-|
E|-----------------------------------|--------------------------|  



  4/4
  01:01
  G                 A                 D
e|3------- 3------- 0------- 0-------|2------- 2------- 2------- 2-------|
B|3--------3--------2--------2-------|3--------3--------3--------3-------|
G|0--------0--------2--------2-------|2--------2--------2--------2-------|
D|0--------0--------2--------2-------|0--------0--------0--------0-------|
A|2--------2--------0--------0-------|-----------------------------------|
E|3--------3-------------------------|-----------------------------------|
           All you  need is       love
e|7------- ------7- 9------- ------9-|10------ ------10 -------- --------|
B|8--------------8--10------------10-|10-------------10------------------|
G|7--------------7--9--------------9-|11-------------11------------------|
D|-----------------------------------|-----------------------------------|
A|-----------------------------------|-----------------------------------|
E|-----------------------------------|-----------------------------------|
           
e|-------- -------- -------- --------|-------- -------- -------- --------|
B|-----------------------------------|----------------6/7-----6--5--4--3-|
G|-----------------------------------|----------------6/7-----6--5--4--4-|
D|-----------------------------------|-----------------------------------|
A|-----------------------------------|-----------------------------------|
E|-----------------------------------|-----------------------------------|





  G                 A                 D
e|3------- 3------- 0------- 0-------|2------- 2------- 2------- 2-------|
B|3--------3--------2--------2-------|3--------3--------3--------3-------|
G|0--------0--------2--------2-------|2--------2--------2--------2-------|
D|0--------0--------2--------2-------|0--------0--------0--------0-------|
A|2--------2--------0--------0-------|-----------------------------------|
E|3--------3-------------------------|-----------------------------------|
           All you  need is       love
e|7------- 7------- 5------- 5-------|5------- 5------- 5------- 5-------|
B|8--------8--------5--------5-------|7--------7--------7--------7-------|
G|7--------7--------6--------6-------|7--------7--------7--------7-------|
D|-----------------------------------|-----------------------------------|
A|-----------------------------------|-----------------------------------|
E|-----------------------------------|-----------------------------------|

e|7------- ------7- 9------- ------9-|10------ ------10 -------- --------|
B|8--------------8--10------------10-|10-------------10------------------|
G|7--------------7--9--------------9-|11-------------11------------------|
D|-----------------------------------|-----------------------------------|
A|-----------------------------------|-----------------------------------|
E|-----------------------------------|-----------------------------------|
           
e|-------- -------- -------- --------|-------- -------- -------- --------|
B|-----------------------------------|---------7------6/7-----6--5--4--3-|
G|-----------------------------------|---------7------6/7-----6--5--4--4-|
D|-----------------------------------|---------0-------------------------|
A|-----------------------------------|-----------------------------------|
E|-----------------------------------|-----------------------------------|





  G                 B7                Em                Em7
e|3------- 3------- 2------- 2-------|0------- 0------- 0------- 0-------|
B|3--------3--------0--------0-------|0--------0--------0--------0-------|
G|0--------0--------2--------2-------|0--------0--------0--------0-------|
D|0--------0--------1--------1-------|2--------2--------0--------0-------|
A|------------------2--------2-------|-----------------------------------|
E|3--------3-------------------------|0--------0--------0--------0-------|
           All you  need is       love              love
e|7------- 7------- 5------- 5-------|3------- 3------- 3------- 3-------|
B|8--------8--------4--------4-------|5--------5--------3--------3-------|
G|7--------7--------4--------4-------|4--------4--------4--------4-------|
D|-----------------------------------|-----------------------------------|
A|-----------------------------------|-----------------------------------|
E|-----------------------------------|-----------------------------------|

e|10------ -------- 11------ --------|12------ -------- 14------ --------|
B|12----------------12---------------|12----------------12---------------|
G|12----------------11---------------|12----------------12---------------|
D|-----------------------------------|-----------------------------------|
A|-----------------------------------|-----------------------------------|
E|-----------------------------------|-----------------------------------|
           


                                      2/4

  C                 D                 G              G6
e|0------- 0------- 2------- 2-------|3------- 3-------|
B|1--------1--------3--------3-------|3--------3-------|
G|0--------0--------2--------2-------|0--------0-------|
D|2--------2--------0--------0-------|0--------0-----2-|
A|3--------3-------------------------|-----------------|
E|-----------------------------------|3----------------|
           Love is all you   need
e|3------- 3------- 5------- 5-------|7------- --------|
B|5--------5--------7--------7-------|8----------------|
G|5--------5--------7--------7-------|7----------------|
D|-----------------------------------|-----------------|
A|-----------------------------------|-----------------|
E|-----------------------------------|-----------------|

e|15------ -------- 14------ --------|15------ --------|
B|13----------------15---------------|15---------------|
G|12----------------14---------------|12---------------|
D|-----------------------------------|-----------------|
A|-----------------------------------|-----------------|
E|-----------------------------------|-----------------|

e|-------- -------- -------- --------|-------- --------|
B|-----------------------------------|-----------------|
G|-----------------------------------|---------------7-|
D|-----------------------------------|-----------------|
A|-----------------------------------|-----------------|
E|-----------------------------------|-----------------|



  Guitar solo 
  
  4/4                                 3/4                                      
  01:18

e|3------- 3------- 3------- 3-------|3------- 3------- 3-----3-|
B|3--------3--------3--------3-------|3--------3--------3-----3-|
G|0--------0--------0--------0-------|0--------0--------0-----0-|
D|0--------0--------0--------0-------|2--------2--------0-----2-|
A|2--------2--------2--------2-------|2--------2--------2-----2-|
E|3--------3--------2--------2-------|0--------0--------0-----0-|
  (Love,                               love)
e|7------- 7------- 7------- 7-------|7------- 7------- --------|
B|8--------8--------7--------7-------|5--------5----------------|
G|7--------7--------7--------7-------|7--------7--------7-----9-|
D|-----------------------------------|--------------------------|
A|-----------------------------------|------------------5-----7-|
E|-----------------------------------|--------------------------|

e|-------- -------- -------- --------|-------- -------- --------|
B|10B12-------12R10-9B10-------------|8-B10-R8------------------|
G|-----------------------------------|---------9-~--------------|
D|-----------------------------------|--------------------------|
A|-----------------------------------|--------------------------|
E|-----------------------------------|--------------------------|






e|3------- 3------- 3------- 3-------|3------- 3------- 3-----3-|
B|3--------3--------3--------3-------|3--------3--------3-----3-|
G|0--------0--------0--------0-------|0--------0--------0-----0-|
D|0--------0--------0--------0-------|2--------2--------0-----2-|
A|2--------2--------2--------2-------|2--------2--------2-----2-|
E|3--------3--------2--------2-------|0--------0--------0-----0-|
  (Love,            love              love)
e|7------- 7------- 7------- 7-------|7------- 7------- --------|
B|8--------8--------7--------7-------|5--------5----------------|
G|7--------7--------7--------7-------|7--------7--------7-----9-|
D|-----------------------------------|--------------------------|
A|-----------------------------------|------------------5-----7-|
E|-----------------------------------|--------------------------|

e|-------- -------- -------- --------|-------- -------- --------|
B|---------10B1210B12---8B10-10R8----|8B10R8--------------------|
G|------7----------------------------|------9-~-----------------|
D|-----------------------------------|--------------------------|
A|-----------------------------------|--------------------------|
E|-----------------------------------|--------------------------|






    Next Verse and Choruses are played as above. 



  Last Chorus

  02:26
  G                 A                 D
e|3------- 3------- 0------- 0-------|2------- 2------- 2------- 2-------|
B|3--------3--------2--------2-------|3--------3--------3--------3-------|           
G|0--------0--------2--------2-------|2--------2--------2--------2-------|
D|0--------0--------2--------2-------|0--------0--------0--------0-------|
A|2--------2--------0--------0-------|-----------------------------------|
E|3--------3-------------------------|-----------------------------------|
           All you  need is       love
                                              (All  together,    now!)
e|7------- 7------- 5------- 5-------|5------- 5------- 5------- 5-------|
B|8--------8--------5--------5-------|7--------7--------7--------7-------|
G|7--------7--------6--------6-------|7--------7--------7--------7-------|
D|-----------------------------------|-----------------------------------|
A|-----------------------------------|-----------------------------------|
E|-----------------------------------|-----------------------------------|
           
e|-------- -------- -------- --------|-------- -------- -------- --------|
B|-----------------------------------|----------------6/7-----6--5--4--3-|
G|-----------------------------------|----------------6/7-----6--5--4--4-|
D|-----------------------------------|-----------------------------------|
A|-----------------------------------|-----------------------------------|
E|-----------------------------------|-----------------------------------|





  G                 A                 D
e|3------- 3------- 0------- 0-------|2------- 2------- 2------- 2-------|
B|3--------3--------2--------2-------|3--------3--------3--------3-------|
G|0--------0--------2--------2-------|2--------2--------2--------2-------|
D|0--------0--------2--------2-------|0--------0--------0--------0-------|
A|2--------2--------0--------0-------|-----------------------------------|
E|3--------3-------------------------|-----------------------------------|
           All you  need is       love
                                              (Everybody!)
e|7------- 7------- 5------- 5-------|5------- 5------- 5------- 5-------|
B|8--------8--------5--------5-------|7--------7--------7--------7-------|
G|7--------7--------6--------6-------|7--------7--------7--------7-------|
D|-----------------------------------|-----------------------------------|
A|-----------------------------------|-----------------------------------|
E|-----------------------------------|-----------------------------------|
           
e|-------- -------- -------- --------|-------- -------- -------- --------|
B|-----------------------------------|---------7------6/7-----6--5--4--3-|
G|-----------------------------------|---------7------6/7-----6--5--4--4-|             
D|-----------------------------------|---------0-------------------------|
A|-----------------------------------|-----------------------------------|
E|-----------------------------------|-----------------------------------|





  G                 B7                Em                Em7
e|3------- 3------- 2------- 2-------|0------- 0------- 0------- 0-------|
B|3--------3--------0--------0-------|0--------0--------0--------0-------|
G|0--------0--------2--------2-------|0--------0--------0--------0-------|
D|0--------0--------1--------1-------|2--------2--------0--------0-------|
A|------------------2--------2-------|-----------------------------------|
E|3--------3-------------------------|0--------0--------0--------0-------|
           All you  need is       love              love
e|7------- 7------- 5------- 5-------|3------- 3------- 3------- 3-------|
B|8--------8--------4--------4-------|5--------5--------3--------3-------|
G|7--------7--------4--------4-------|4--------4--------4--------4-------|
D|-----------------------------------|-----------------------------------|
A|-----------------------------------|-----------------------------------|
E|-----------------------------------|-----------------------------------|


           


                                      2/4

  C                 D                 G              G6
e|0------- 0------- 2------- 2-------|3------- 3-------|
B|1--------1--------3--------3-------|3--------3-------|
G|0--------0--------2--------2-------|0--------0-------|
D|2--------2--------0--------0-------|0--------0-----2-|
A|3--------3-------------------------|-----------------|
E|-----------------------------------|3----------------|
           Love is all you   need
e|3------- 3------- 5------- 5-------|7------- --------|
B|5--------5--------7--------7-------|8----------------|
G|5--------5--------7--------7-------|7----------------|
D|-----------------------------------|-----------------|
A|-----------------------------------|-----------------|
E|-----------------------------------|-----------------|





  02:43                                   


  The long ending Coda (02:43 and on) is played in 4/4 Time. 
  You can hear J. S. Bach's "F Major Invention For Two Trumpets"(02:52 
  and on), two tenor saxophones playing a section of Glenn Miller`s "In 
  The Mood" Intro motif (03:01 and on), "Greensleeves" (03:13), played 
  by two celli and four violins and housed underneath in 3/4 Time and 
  the "She Loves You" original pitch vocal by Paul (03:22), among a lot 
  more things, all fitted together with the prevailing 4/4 time until 
  the faded end at 03:45. 
  The thing went on yet for some more time. There were also some guests 
  to party along with them before that, then impressive, audience (a never 
  seen before 400.000.000 watchers, some say they could be 600.000.000) 
  on the BBC TV Special "Our World" on the 25th June 1967. Guests such 
  as Pattie Harrison, Jane Asher, Marianne Faithful, [not Yoko, I thank 
  God for that], Mike McCartney , Keith Moon of The Who, Rolling Stones 
  Mick Jagger & Keith Richards, Eric Clapton, Graham Nash of The Hollies
  (later with Crosby & Stills) and wife, Hunter Davies, author of the 
  Beatles "Authorised" Biography et cetera, et cetera.  
   
   
    

           


        B  Bend
        R  Release
        /  Slide up
        \  Slide down
        H  Hammer-on
        P  Pull-off
        ~  Vibrato
        +  Harmonic
        x  Mute note
        .  Play note like a dot in standard notation
        ^  Ties two notes together
        (. Pause    

Added On December 4th, 2013

SHARE

Comments

blog comments powered by Disqus