Beatles Tabs

Because

2 versions

TAB

            Band: The Beatles
Song: Because
Album: Abbey Road

(Intro)
   C#m                                 Eb-5/7
e|-----------------|-----------------|-----------------|
B|-------5---------|-------5---------|-------4---------|
G|-----6---6-------|-----6---6-------|-----6---6-------|
D|---6-------6---6-|---6-------6---6-|---7-------7---5-|
A|-4-----------7---|-4-----------7---|-6-----------7---|       
E|-----------------|-----------------|-----------------|
   G#                A                 C#m
e|-----------------|-----------------|-----------------|
B|-------4---------|-------5---------|-------5---------|
G|-----5---5-------|-----6---6-------|-----6---6-------|
D|---6-------6-----|---7-------7---7-|---6-------6---6-|
A|-6-------------6-|-------------7---|-4-----------4---|
E|-------------4---|-5---------------|-----------------|
   A7                A13               D
e|-----------------|-----------------|-------2---------|
B|-------8---------|-------7---------|-----3---3-------|
G|-----6---6-------|-----6-----------|---2-------2---2-|
D|---5-------5---5-|---5-------------|-0-----------4---|
A|-0-----------7---|-0---------------|-----------------|
E|-----------------|-----------------|-----------------|
           Dm
e|-------2-1-------|
B|-----3-----------|
G|---2-------------|
D|-0---------------|
A|-----------------|
E|-----------------|

(Verse 1)
   C#m                                 Eb-5/7
e|-----------------|-----------------|-----------------|
B|-------5---------|-------5---------|-------4---------|
G|-----6---6-------|-----6---6-------|-----6---6-------|
D|---6-------6---6-|---6-------6---6-|---7-------7---5-|
A|-4-----------7---|-4-----------7---|-6-----------7---|       
E|-----------------|-----------------|-----------------|
   G#                A                 C#m
e|-----------------|-----------------|-----------------|
B|-------4---------|-------5---------|-------5---------|
G|-----5---5-------|-----6---6-------|-----6---6-------|
D|---6-------6---6-|---7-------7---7-|---6-------6---6-|
A|-6-----------6---|-7-----------7---|-4-----------4---|
E|-----------------|-----------------|-----------------|
   A7                A13               D
e|-----------------|-----------------|-------2---------|
B|-------8---------|-------7---------|-----3---3-------|
G|-----6---6-------|-----6-----------|---2-------2---2-|
D|---5-------5---5-|---5-------------|-0-----------4---|
A|-0-----------7---|-0---------------|-----------------|
E|-----------------|-----------------|-----------------|
           Dm
e|-------2-1-------|
B|-----3-----------|
G|---2-------------|
D|-0---------------|
A|-----------------|
E|-----------------|

(Verse 2)
   C#m                                 Eb-5/7
e|-----------------|-----------------|-----------------|
B|-------5---------|-------5---------|-------4---------|
G|-----6---6-------|-----6---6-------|-----6---6-------|
D|---6-------6---6-|---6-------6---6-|---7-------7---5-|
A|-4-----------7---|-4-----------7---|-6-----------7---|       
E|-----------------|-----------------|-----------------|
   G#                A                 C#m
e|-----------------|-----------------|-----------------|
B|-------4---------|-------5---------|-------5---------|
G|-----5---5-------|-----6---6-------|-----6---6-------|
D|---6-------6---6-|---7-------7---7-|---6-------6---6-|
A|-6-----------6---|-7-----------7---|-4-----------4---|
E|-----------------|-----------------|-----------------|
   A7                A13               D
e|-----------------|-----------------|-------2---------|
B|-------8---------|-------7---------|-----3---3-------|
G|-----6---6-------|-----6-----------|---2-------2---2-|
D|---5-------5---5-|---5-------------|-0-----------4---|
A|-0-----------7---|-0---------------|-----------------|
E|-----------------|-----------------|-----------------|
           Dm
e|-------2-1-------|
B|-----3-----------|
G|---2-------------|
D|-0---------------|
A|-----------------|
E|-----------------|

(Bridge)
   F#                                  G#
e|-----------------|-----------------|-----------------|---------4-|
B|-------2---------|-------2---------|-------4---------|-------4---|
G|-----3---3-------|-----3---3-------|-----5---5-------|-----5-----|
D|---4-------4---4-|---4-------4---4-|---6-------6-4-6-|---6-------|
A|-------------4---|-------------4---|-----------------|-----------|
E|-2---------------|-2---------------|-4---------------|-4---------|

(Verse 3)
   C#m                                 Eb-5/7
e|-----------------|-----------------|-----------------|
B|-------5---------|-------5---------|-------4---------|
G|-----6---6-------|-----6---6-------|-----6---6-------|
D|---6-------6---6-|---6-------6---6-|---7-------7---5-|
A|-4-----------7---|-4-----------7---|-6-----------7---|       
E|-----------------|-----------------|-----------------|
   G#                A                 C#m
e|-----------------|-----------------|-----------------|
B|-------4---------|-------5---------|-------5---------|
G|-----5---5-------|-----6---6-------|-----6---6-------|
D|---6-------6---6-|---7-------7---7-|---6-------6---6-|
A|-6-----------6---|-7-----------7---|-4-----------4---|
E|-----------------|-----------------|-----------------|
   A7                A13               D
e|-----------------|-----------------|-------2---------|
B|-------8---------|-------7---------|-----3---3-------|
G|-----6---6-------|-----6-----------|---2-------2---2-|
D|---5-------5---5-|---5-------------|-0-----------4---|
A|-0-----------7---|-0---------------|-----------------|
E|-----------------|-----------------|-----------------|
           Dm
e|-------2-1-------|
B|-----3-----------|
G|---2-------------|
D|-0---------------|
A|-----------------|
E|-----------------|

(Instrumental Break)
   C#m                                 Eb-5/7
e|-----------------|-----------------|-----------------|
B|-------5---------|-------5---------|-------4---------|
G|-----6---6-------|-----6---6-------|-----6---6-------|
D|---6-------6---6-|---6-------6---6-|---7-------7---5-|
A|-4-----------7---|-4-----------7---|-6-----------7---|       
E|-----------------|-----------------|-----------------|
   G#                A                 C#m
e|-----------------|-----------------|-----------------|
B|-------4---------|-------5---------|-------5---------|
G|-----5---5-------|-----6---6-------|-----6---6-------|
D|---6-------6---6-|---7-------7---7-|---6-------6---6-|
A|-6-----------6---|-7-----------7---|-4-----------4---|
E|-----------------|-----------------|-----------------|
   A7                A13               D
e|-----------------|-----------------|-------2---------|
B|-------8---------|-------7---------|-----3---3-------|
G|-----6---6-------|-----6-----------|---2-------2---2-|
D|---5-------5---5-|---5-------------|-0-----------4---|
A|-0-----------7---|-0---------------|-----------------|
E|-----------------|-----------------|-----------------|
           Dm
e|-------2-1-------|
B|-----3-----------|
G|---2-------------|
D|-0---------------|
A|-----------------|
E|-----------------|

Lyrics:

(Verse 1)
Ahh…
Because the world is round, it turns me on…
Because the world is round…

(Verse 2)
Ahh…
Because the wind is high, it blows my mind…
Because the wind is high…

(Bridge)
Ah, Love is old, love is new
Love is all, love is you

(Verse 3)
Ahh…
Because the sky is blue, it makes me cry…
Because the sky is blue…

THE END    

Added On December 16th, 2013

SHARE

Comments

blog comments powered by Disqus

VERSIONS

ADVERTISEMENT