Beatles Tabs

Birthday

3 versions

TAB

            *****************************************************************************
**************************** Birthday * The Beatles *************************
*****************************************************************************
*************************** Tabbed By * GuitarYee ***************************
*****************************************************************************

Hi Guys, 
This Is My First Tab,
So It Could Be Totally Wrong..

So Please Rate On What I Got..
Thanx.. ^^

*****************************************************************************

*||Intro||x2||*
e||---------------------------------------||
B||---------------------------------------||
G||---------------------------------------||
D||-----------------2---5---4---2---------||
A||-----0---0---4-------------------0-----||
E||---------------------------------------||

e||---------------------------------------||
B||---------------------------------------||
G||---------------------------------------||
D||-----------------2---5---4---2---------||
A||-----0---0---4-------------------0-----||
E||---------------------------------------||

e||---------------------------------------||
B||---------------------------------------||
G||-----------------2---5---4---2---------||
D||-----0---0---4-------------------0-----||
A||---------------------------------------||
E||---------------------------------------||

e||---------------------------------------||
B||---------------------------------------||
G||---------------------------------------||
D||-----------------2---5---4---2---------||
A||-----0---0---4-------------------0-----||
E||---------------------------------------||

e||---------------------------------------||
B||---------------------------------------||
G||---------------------------------------||
D||---------------------------------------||
A||-----------------2---5---4---2---------||
E||-----0---0---4-------------------0-----||

e||---------------------------------------||
B||---------------------------------------||
G||---------------------------------------||
D||-----------------2---5---4---2---------||
A||-----0---0---4-------------------0-----||
E||---------------------------------------||

*||I Know Theres A Part Missing Here.. But I Couldn't Find It||*

*||Chorus||x4||*
e||--------------------------------------------------------------||
B||--------------------------------------------------------------||
G||--------------------------------------------------------------|| 
D||------------2--2---3--3---4--4---5--5-------------------------|| 
A||-----3--3-------------------------------3--3---2--2---0--0----||
E||--------------------------------------------------------------||

*||Intro||*

*||Solo||Guitar.1||*
e||--------------------------------------------------------------||
B||--------------------------------------------------------------||
G||------------------------------------------5-7b---5------------|| 
D||---------5-7-5------------------------5-7-------------7-5-----|| 
A||-------7-------7-5-3----------------7-------------------------||
E||-----5---------------5-3----------5---------------------------||
 ||                                                              ||
*||Solo||Guitar.2||*                                             ||
e||------------------------------------------8-10b-8h10p8--------||
B||---------8-8b-------------------------8-10------------10-8----||
G||-------9-------9-7-5----------------9-------------------------|| 
D||-----7---------------7-5----------7---------------------------|| 
A||--------------------------------------------------------------||
E||--------------------------------------------------------------||

*||Chorus||x4||*

*||Intro||*

*||The End||*

*****************************************************************************

So That Is It.. 
Enjoy..
Oh Yeah,
Please Rate,
And Leave A Comment
Cya.. ^^

*****************************************************************************    

Added On December 16th, 2013

SHARE

Comments

blog comments powered by Disqus

VERSIONS

ADVERTISEMENT