Beatles Tabs

Let It Be Album

1 versions

TAB

            Let It Be Tab by Beatles


Let It Be
Album


1. Two Of Us
2. Dig A Pony
3. Across The Universe
4. I Me Mine
5. Dig It
6. Let It Be
7. Maggie Mae
8. I've Got A Feeling
9. One After 909
10. The Long And Winding Road
11. For You Blue
12. Get Back

========================================================================


            Two Of Us


Intro:
   (no chord)
-|-----7-----7~--7-----------7-----7~--7-----------------------|
-|-------------------------------------------------------------|
-|--7-----7---------7--9--7-----7---------7--9-----------------|
-|-------------------------------------------------------------|
-|-------------------------------------------------------------|
-|-------------------------------------------------------------|

     G
-|-------------------------------------------------------------|
-|-------------------------------------------------------------|
-|-------------------------------------------------------------|
-|----------5---------------5-----5---------------5------------|
-|------------------5--5/7----------------5--5/7---------------|
-|---3---------5/7-------------3-----5/7-----------------------|


Verse:
    G
-|--------------------------------------------------------------|
-|--------------------------------------------------------------|
-|--------------------------------------------------------------|
-|----------5---------------5-----5---------------5-----5-------|
-|------------------5--5/7----------------5--5/7----------------|
-|---3---------5/7-------------3-----5/7-------------3----------|
    Two of us  ri-----ding nowhere  spen------------------------|ding  someone's

    C     Bm     Am7
-|-------------------------------------------------------------|
-|-------------------------------------------------------------|
-|-------------------------------------------------------------|
-|-------------------------------------------------------------|
-|--3--3--2--2---0-----0---------------------------------------|
-|------------------3-----3--2---------------------------------|
   Hard   earned pay

    G
-|--------------------------------------------------------------|
-|--------------------------------------------------------------|
-|--------------------------------------------------------------|
-|----------5---------------5-----5---------------5-----5-------|
-|------------------5--5/7----------------5--5/7----------------|
-|---3---------5/7-------------3-----5/7-------------3----------|
    You and me Sun-----day   driving not     ar-----------------|riving

    C     Bm     Am7             G              D
-|-------------------------------------------------------------|
-|-------------------------------------------------------------|
-|-------------------------------------------------------------|
-|-------------------------------------------------------------|
-|--3--3--2--2---0-----0------------------2--3--5--------------|
-|------------------3-----3--2---3--2--3-----------------------|
   On     our    way      back  home


----------------------------------------------------------

TWO OF US

  G
Two of us riding nowhere
                  Cadd9    Bm   Am7
Spending someone's hard  earned pay.
 G
You and me Sunday driving, not arriving
Cadd9  Bm  Am7       G    G\D  Cadd9  D
On     our way back home
            Cadd9    G    G\D  Cadd9  D
We're on our way    home
            Cadd9    G    G\D  Cadd9
We're on our way    home
      Cadd9   G
We're going  home.


 G
Two of us sending postcards
               Cadd9  Bm Am7
Writing letters on    my wall
G
You and me burning matches, lifting latches
Cadd9  Bm  Am7       G   G\D  Cadd9  D
On     our way back home
             Cadd9   G   G\D  Cadd9  D
We're on our way    home
            Cadd9    G   G\D  Cadd9
We're on our way    home
      Cadd9 G
We're going home.


Bb               Dm
You and I have memories
  Gm             Am                 Am7       D
Longer than the road that stretches out ahead


G
Two of us wearing raincoats
             Cadd9  Bm  Am7
Standing solo in    the sun.
 G
You and me chasing paper, getting nowhere
Cadd9  Bm  Am7       G   G/D  Cadd9  D
On     our way back home
            Cadd9   G   G/D  Cadd9  D
We're on our way   home
            Cadd9   G   G/D  Cadd9
We're on our way   home
      Cadd9   G
We're going  home.

Bb             Dm
You and I have memories
Gm               Am                  Am7      D
Longer than the road that stretches out ahead

 G
Two of us wearing raincoats
             Cadd9  Bm  Am7
Standing solo in    the sun.
G
You and me chasing paper, getting nowhere
Cadd9  Bm  Am7       G   G/D  Cadd9  D
On     our way back home
D            Cadd9   G   G/D  Cadd9  D
We're on our way    home
D            Cadd9   G   G/D  Cadd9
We're on our way    home
      Cadd   G
We're going home.

[

========================================================================


	I Dig A Pony

False start:
    A-one-two-three HOLD IT!
-|------------------------------|
-|------------------------------|
-|------------------------------|
-|------------------------------|
-|------------------------------|
-|---------------------------3--|


Intro (also use as ending):
    G                 D
-|--------------------------------------|
-|--------------------------------------|
-|-----------------------------4--7--4--|
-|-----------2--5--2-----4--7-----------|
-|-----2--5-----------5-----------------|
-|--3-----------------------------------|

    A
-|-------------------------------------------------|
-|-------------------------------------------------|
-|-----------------------------2-------------------|  (repeat)
-|--5--5--5---------2--h3--h4-----4--2---------2---|
-|--0--0--0--3--h4----------------------3--h4------|
-|-------------------------------------------------|


Verse:
    I                          dig a pony
    A      F#m
-|--5--5----5--5----5--5----5----------2--|
-|--2--2h3--2--2h3--2--2h3--2----------2--|
-|--2--2----2--2----2--2----2----------2--|
-|--2--2h4--2--2h4--2--2h4--2----------4--|
-|--0--0----0--0----0--0----0----------4--|
-|-------------------------------------2--|

            Well you can celebrate any thing you want (*)   yes
                           Bm           G
-|------------------------------------------------3--5--5/7--5--|
-|--------------------------------------------------------------|
-|------------------------------------------------4--5--5/7--5--|
-|--2h4--2------------------------------------------------------|
-|---------------4-------2--------------------------------------|
-|--------------------------------------------------------------|

    You can celebrate any thing you want          oh
             Bm            G           E7                  A
-|--3--------2-------------3-------------0--2--4--5--7--8--9-------|
-|-----------------------------------------------------------------|
-|--4--------4-------------4-------------1--2--4--6--7--8--9-------|
-|-----------------------------------------------------------------|
-|-----------------------------------------------------------------|
-|-----------------------------------------------------------------|

A        F#m
I do a roadhog
               Bm           G
Well you can penetrate any place you go
               Bm           G
Yes you can penetrate any place you go

          I told you so
    E7
-|--9--7-----4----2--0----|
-|------------------------|
-|--9--7-----4----2--1----|
-|------------------------|
-|------------------------|
-|------------------------|

    All   I  want  is you
    G        D        A
-|------------------------------------------------------------------|
-|------------------------------------------------------------------|
-|------------------------------------------------------------------|
-|-----------------------------------------------2------------------|
-|-----2--5--------5--5--5--5---------2--h3--h4-----4--2---------2--|
-|--3--------2--5-----0--0--0--3--h4----------------------3--h4-----|

    Everything has got to be the way you want it to ... because
    G                 D
-|---------------------------------------------------|
-|---------------------------------------------------|
-|-----------------------------------4---7----4------|
-|-------------2---5---2-----4---7---------------5---|
-|-----2--5---------------5----------------------0---|
-|--3------------------------------------------------|


Verse:
I pick a moondog
Well you can radiate every thing you are
Yes you can radiate every thing you are
I wrote a story
Well ou can imitate everyone you know
Yes you can imitate everyone you know
I told you so
All I want is you
Everything has got to be the way you want it to.
Because...


Guitar solo:
    A                                                              F#m
-|----------------------------------------------------14---------------|
-|-----------------10--12--p10------12b(14)--12b(14)------b(14)12------|
-|--9--11--p9-------------------11---------------------------------11--|
-|-------------11------------------------------------------------------|
-|---------------------------------------------------------------------|
-|---------------------------------------------------------------------|

             Bm              G
-|---------------------------------------------------------------------|
-|--10--12--12b(15)--(15)--b(15)12-------------------------------------|
-|----------------------------------10--12b(14)12--10------------------|
-|---------------------------------------------------------------------|
-|---------------------------------------------------------------------|
-|---------------------------------------------------------------------|

     Bm              G             E7
-|-------------------------------------0------14------16--14--12-------|
-|--12b(15)--(15)--b(15)12---------------------------------------------|
-|--------------------------12--12/13-----14------16------14--13-------|
-|---------------------------------------------------------------------|
-|---------------------------------------------------------------------|
-|---------------------------------------------------------------------|


Verse:
I fell the wind blow
Well you can indicate everything you see
Yes you can indicate anything you see
I wrote a lorry (??? you tell me ???)
Well you can syndicate any boat you row
Yes you can syndicate any boat you row
I told you so
All I want is you
Everything has got to be the way you want it to.
Because...


Ending is same as intro:

----------------------------
Miscellaneous info:

Note this figure played over the A chord in the verses.
John was really into this around the "Let It Be" years.
This is also the basis of the intro and main rhythm part
for "I've Got A Feeling."

-|--5---5----|
-|--2--h3----|
-|--2---2----|
-|--2--h4----|
-|--0---0----|
-|-----------|


========================================================================


		   ACROSS THE UNIVERSE
                           (Lennon/McCartney)
          		      The Beatles
                            Let It Be (1970)


This is Across the universe as I believe John originally played it.
The song was sped up for inclusion on the World Wildlife Fund album
(as heard on Past Masters volume II), and then slowed down again for
the Let It Be album.  When Phil Spector (producer of Let It Be) slowed
the song down, he actually brought the song down a half step; from D
to roughly C#.  You can play along with the album by playing in C#,
tuning your guitar down a half step and playing in D, or using a capo
on the first fret and playing in C. Here it is in original form in D...


Intro :

|-2----/10----9--7--5---------------------------------------------------|
|---------------------7--2--2--2--2--2--2--2--2--------------2----------|
|-2----/11----9--7--6----2--4--2--4--2--4--2--4--2--4--2--4--2--4--2--4-|
|---0------0-------------4--4--4--4--4--4--4--4--2--2--2--2--2--2--2--2-|
|------------------------x--x--x--x--x--x--x--x--0-----0-----0-----0----|
|------------------------2-----2-----2-----2----------------------------|


     D                 Bm               F#m
   Words are flowing out like endless rain into a paper cup
    Em7                                    A                 A7
   They slither while they pass they slip away across the Universe.
     D               Bm               F#m
   Pools of sorrow, waves of joy are drifting through my opened mind
    Em7              Gm
   Possessing and caressing me.


    D             A7
   Jai Guru Deva Om
    A7
   Nothing's gonna change my world
    G			        D
   Nothing's gonna change my world
    A7
   Nothing's gonna change my world
    G			        D
   Nothing's gonna change my world


     D         Bm	           F#m	                         Em7
   Images of broken light which dance before me like a million eyes
                               A          A7
   They call me on and on across the Universe.
     D               Bm	      F#m
   Thoughts meander like a restless wind inside a letterbox
         Em7			             A                A7
   They tumble blindly as they make their way across the Universe.


    D              A7
   Jai Guru De Va  Om
    A7
   Nothing's gonna change my world
    G                          D
   Nothing's gonna change my world
    A7
   Nothing's gonna change my world
    G                          D
   Nothing's gonna change my world


    D                   Bm	               F#m
   Sounds of laughter, shades of earth are ringing through my opened ears
    Em7	    Gm
   Inciting and inviting me.
    D	           Bm		    F#m			           Em7
   Limitless, undying love which shines around me like a million suns
                             A          A7
   And calls me on and on across the Universe.


    D              A7
   Jai Guru De Va  Om
    A7
   Nothing's gonna change my world
    G                          D
   Nothing's gonna change my world
    A7
   Nothing's gonna change my world
    G                          D
   Nothing's gonna change my world


    D
   Jai Guru Deva.  (Repeat and fade)


========================================================================

	                     I Me Mine

by George Harrison
from Let It Be

Intro  riff:
  Am                           D
E|----------------------------|----------5--------8----10----|
B|----------------------------|5----8------------------------|
G|------------------------5h7-|------------------------------|
D|--------------------5h7-----|------------------------------|
A|----------------------------|------------------------------|
E|5---------------------------|------------------------------|
  G            E7
E|10b11-------------8----10----|
B|-----------------------------|
G|-----------------------------|
D|-----------------------------|
A|-----------------------------|
E|-----------------------------|

Verse:
Am                        D7
All______ through the day
         G          E          Am
I me mine, I me mine, I me mine___
Am                         D7
All______ through the night
         G          E          Am
I me mine, I me mine, I me mine___


Pre-Chorus:
            Dm
Now they're frightened of leaving it

Everyone's reading it
E7
Coming on strong all the time
Am   Am7
All through the day
Am6             Fmaj7
I, me, mine_____


Chorus:
Am
I me me mine____

I me me mine____
Dm
I me me mine____
Am               E7
I me me mine____


Verse:
Am                  D7
All______ I can hear
         G          E          Am
I me mine, I me mine, I me mine___
Am              D7
Even those tears
         G          E          Am
I me mine, I me mine, I me mine___


Pre-Chorus:
         Dm
No one's frightened of playing it

Everyone's saying it
E7
Flowing more freely than wine
Am   Am7
All through the day
Am6              Fmaj7
I, me, mine_____


Chorus:
Am
I me me mine____

I me me mine____
Dm
I me me mine____
Am               E7
I me me mine____


Verse:
Am                  D7
All______ I can hear
         G          E          Am
I me mine, I me mine, I me mine___
Am              D7
Even those tears
         G          E          Am
I me mine, I me mine, I me mine___


Pre-Chorus:
         Dm
No one's frightened of playing it

Everyone's saying it
E7
Flowing more freely than wine
Am   Am7
All through the day
Am6              Fmaj7
I, me, mine_____


Ending:
Am   Am7
All through the life
                 Fmaj7
I, me, mine_____


CHORDS:

Am- X02210
Amaj7- X02120
Am6- XXX553
Am7- X02010
D- XX0232
D7- XX0212
Dm- XX0231
E- 022100
E7- 020100
Fmaj7- 1X2210
G- 320011


========================================================================


DIG IT


The chords (all open form): D - A - D - E  (over and over...)


...like a rolling stone...

...like a rolling stone...

...like a rolling stone...

...like the FBI

and the CIA...

and the BBC...

B.B. King...

and Doris Day...

Matt Busby...

Dig it...

Dig it...

Dig it...

(fade)

========================================================================


LET IT BE


intro:
C   G   Am   F (Dm/F)    

Added On December 4th, 2013

SHARE

Comments

blog comments powered by Disqus

ADVERTISEMENT