Beatles Tabs

Past Masters Vol 2 Album

1 versions

TAB

            Past Masters Vol 2 Tab by Beatles


Past Masters Vol. Two
Album

1. Day Tripper
2. We Can Work It Out
3. Paperback Writer
4. Rain
5. Lady Madonna
6. The Inner Light
7. Hey Jude
8. Revolution
9. Get Back
10. Don't Let Me Down
11. The Ballad Of John And Yoko
12. Old Brown Shoe
13. Across The Universe
14. Let It Be
15. You Know My Name (Look Up The Number)


==========================================================================

DAYTRIPPER

 These are the riffs that begin and underline the song:


  E riff                              A riff
----------------------------       ----------------------------|
----------------------------       ----------------------------|
----------------------------       -----------2-0-----4----0-2-|
-----------2---0---4---0-2--       ---------2-------2----2-----|
---------2-------2---2------       -0---3-4--------------------|
-0---3-4--------------------       ----------------------------|

E7
Got a good reason, for taking the easy way out
A7                 E7
Got a good reason, for taking the easy way out
          F#
She was a day   tripper, one way ticket yeah
            A     G#7          C#               B
It took me so    long to find out, and I found out


 E7
She's a big teaser, she took me half the way there
 A7                  E7
She's a big teaser, she took me half the way there
          F#
She was a day   tripper, one way ticket yeah
            A     G#7          C#               B
It took me so    long to find out, and I found out

[solo] B


 E7
Tried to please her, but she only played one night stands
 A7                       E7
Tried to please her, but she only played one night stands
           F#
She was a day tripper, Sunday driver, yeah
           A     G#7          C#               B
It took me so   long to find out, and I found out

Day Tripper

This is that note that seems to appear before every tab found on the
Internet telling you how good the song is ...like you didn't know!

I know that Riff 3 isn't exactly right and probably doesn't strum the
C# and B chords, but if you're playing on your own then it sounds ok!
Alternatively, you could carry the pattern of the first part of the
riff throughout.

Riff 1 (Verse)
E--------------------------------------------|
B--------------------------------------------|
G--------------------------------------------|
D-----------2--0-----4----0-2----------------|
A---------2-------2-----2--------------------|
E--0--3-4------------------------------------|


Riff 2 (Verse)
E--------------------------------------------|
B--------------------------------------------|
G-----------2--0-----4----0-2----------------|
D---------2-------2-----2--------------------|
A--0--3-4------------------------------------|
E--------------------------------------------|


Riff 3 (Chorus)
   F#        A         G#       C#                 B
E----------------------------------9--9-----9--------7-7---7--------------|
A---x8-------x2--------x2----------9--9--9--9--9-----7-7-7-7-7------------|
D-------------------------------10-10-10-10-10-10--8-8-8-8-8-8------------|
G--4---------7---------6--------11-11-11-11-11-11--9-9-9-9-9-9------------|
B--4-4-4-4-/-7-7-7-7-/-6-6-6-6--11-11-11-11-11-11--9-9-9-9-9-9------------|
E--2-2-2-2-/-5-5-5-5-/-4-4-4-4--9--------9-----9---7-----7---7------------|    

Added On December 4th, 2013

SHARE

Comments

blog comments powered by Disqus

ADVERTISEMENT