Beatles Tabs

Real Love

4 versions

TAB

            Real Love Tab by Beatles


Real love
by The Beatles
Lennon/McCartney
Released some 15 years after John Lennon's life was tragically ended. One of my favorite 
songs. I'll give you the chords, just figure out the strumming
Tabbed by: Paul Nicholas Dimerin

Tuning: Standard

e|------------------------------------------------------------------3--------|
B|------------------------------------------------------------------3--------|
G|--1---------------------------------------------------------------3--------|
D|--2-----------------------6--------------7------------------------5--------|
A|--2-----------------------6--------------7------------------------5--------|
E|--------------------------4--------------5------------------------3--------|
    All my little plans and schemes        Lost like some forgotten dream

e|-----------------------------------------------------------3---------------|
B|-----------------------------------------------------------3---------------|
G|-------------------------------------------------------1---3--1------------|
D|--7--------------------------------4-9-----------------2---5--2------------|
A|--7--------------------------------4-9-----------------2---5--2------------|
E|--5--------------------------------2-7---------------------3---------------|
    Seems like all i really was doing      Was waiting for you
e|------------------------------------------------------------------3--------|
B|------------------------------------------------------------------3--------|
G|--1---------------------------------------------------------------3--------|
D|--2-----------------------6--------------7------------------------5--------|
A|--2-----------------------6--------------7------------------------5--------|
E|--------------------------4--------------5------------------------3--------|
    Just like little girls and boys        Playing with their little toys
e|-----------------------------------------------------------3---------------|
B|-----------------------------------------------------------3---------------|
G|-------------------------------------------------------1---3--1------------|
D|--7--------------------------------4-9-----------------2---5--2------------|
A|--7--------------------------------4-9-----------------2---5--2------------|
E|--5--------------------------------2-7---------------------3---------------|
    Seems like all i really was doing      Was waiting for you
e|-----------------------3--------------------------3------------------------|
B|-----------------------3--------------------------3------------------------|
G|--1--------------------3--------1-----------------3------------------------|
D|--2--------------------5--------2-----------------5------------------------|
A|--2--------------------5--------2-----------------5------------------------|
E|-----------------------3--------------------------3------------------------|
    Don't need to be alone        No need to be alone
e|---------------------------------------------------------------------------|
B|---------------------------------------------------------------------------|
G|---1-------------6------------------------1-----------------6--------------|
D|---2-------------6------7-------9---------2-----------------6--------------|
A|---2-------------4------7-------9---------2-----------------4--------------|
E|------------------------5-------7------------------------------------------|
      It's real love      It's real          yes it's real love
e|---------------------------------------------------------------------------|
B|---------------------------------------------------------------------------|
G|---------------------------------------------------------------------------|
D|---7--------9--------------------------------------------------------------|
A|---7--------9--------------------------------------------------------------|
E|---5--------7--------------------------------------------------------------|
     It's real


Just follow this chord progression on the succeeding verses and choruses.
enjoy!    

Added On December 16th, 2013

SHARE

Comments

blog comments powered by Disqus

VERSIONS

ADVERTISEMENT