Beatles Tabs

Revolution

4 versions

TAB

            The Beatles
"Revolution"
words and music by Lennon, and McCartney
Figured this song out in about 2 hours. It's pretty easy, and fun to play.
I'm am sure its 100% correct. It's my first tab!
Good Luck, and Have Fun!

Intro
Moderately (Fuzz)

|---3/5-5-5-5-5-5-5-5-5-5-5-5-3/5-5-5-5-5-5-5-5-5-5-5-5-|
|---3/5-5-5-5-5-5-5-5-5-5-5-5-3/5-5-5-5-5-5-5-5-5-5-5-5-|
|-------------------------------------------------------|
|-------------------------------------------------------|
|-------------------------------------------------------|
|-------------------------------------------------------|

|--8^--------------------10-----------------------------|
|--8^--(8)------8--10---------------------7\\\\\\\\\\\\\|
|------------9----------------------------7\\\\\\\\\\\\\|
|-------------------------------------9---7\\\\\\\\\\\\\|
|-------------------------------------------------------|
|-------------------------------------------------------|

Verse

|--------------------------------------------------------------------------------|
|--------------------------------------------------------------------------------|
|2-----2--------2-----2---------2-----2---------2-----2--------2------2----4-----|
|2-----2---4----2-----2---4-----2-----2---4-----2-----2---4----2----------------0|
|---0---------0----0---------0-----0---------0-----0--------0------0------------0|
|--------------------------------------------------------------------------------|

|--------------------------------------------------------------------------------|
|--------------------------------------------------------------------------------|
|---2----------2----4----------2-----------2----4---------2---------2----4-------|
|---0----0---------------0-----------0---------------0---------0-----------------|
|-----------------------------------------------------------------------------0--|
|--------------------------------------------------------------------------------|

|--------------------------------------------------------------------------------|
|--------------------------------------------------------------------------------|
|--------------------------------------------------------------------------------|
|--2--------2---------------2---------2---------------2----------2---------------|
|--2--------2-----4---------2---------2-----4---------2----------2-----4---------|
|------0---------------0---------0---------------0----------0----------------0---|

Pre-Chorus
(strum)

         Bm/F#             E                 Bm/F#
|---------0----------------0------------------0----------------------------------|
|---------3----------------0------------------3----------------------------------|
|---------4----------------1------------------4----------------------------------|
|---------4----------------2------------------4----------------------------------|
|---------2----------------2------------------2----------------------------------|
|---------2----------------0------------------2----------------------------------|

Chorus

|--------------------------------------------------------------------------------|
|--------------------------------------------------------------------------------|
|2-----2--------2-----2---------2-----2---------2-----2--------2------2----4-----|
|2-----2---4----2-----2---4-----2-----2---4-----2-----2---4----2----------------0|
|---0---------0----0---------0-----0---------0-----0--------0------0-------------|
|--------------------------------------------------------------------------------|

Let Ring_____________________________________________________________________
|--------------------------------------------------------------------------------|
|--------------------------------------------------------------------------------|
|--------------------------------------------------------------------------------|
|------------0----0---------------2----2--------------0---0----------------0-----|
|-----0----2--------------0----2---------------0----2-------------0---2----------|
|0--0---------------0---0----------------0---0--------------0--0-----------------|

Piano Solo

|--------------------------------------------------------------------------------|
|--------------------------------------------------------------------------------|
|2-----2--------2-----2---------2-----2---------2-----2--------2------2----4-----|
|2-----2---4----2-----2---4-----2-----2---4-----2-----2---4----2----------------0|
|---0---------0----0---------0-----0---------0-----0--------0------0------------0|
|--------------------------------------------------------------------------------|

|--------------------------------------------------------------------------------|
|--------------------------------------------------------------------------------|
|---2----------2----4----------2-----------2----4---------2---------2----4-------|
|---0----0---------------0-----------0---------------0---------0-----------------|
|-----------------------------------------------------------------------------0--|
|--------------------------------------------------------------------------------|

|--------------------------------------------------------------------------------|
|--------------------------------------------------------------------------------|
|--------------------------------------------------------------------------------|
|--2--------2---------------2---------2---------------2----------2---------------|
|--2--------2-----4---------2---------2-----4---------2----------2-----4---------|
|------0---------------0---------0---------------0----------0----------------0---|    

Added On December 16th, 2013

SHARE

Comments

blog comments powered by Disqus

VERSIONS

ADVERTISEMENT