Beatles Tabs

Shes Leaving Home

2 versions

TAB

            luis_12138@hotmail.com(PERU)

She's leaving home -The Beatles
Sgt Peppers Lonely Hearts Club Band  (1967)


Intro:

e|-------12 ---12-----16-12-----------|
B|----12----12---12---------14-12---12|
G|13-----------------------------14---|
D|14----------------------------------|     ---> x2
A|------------------------------------|
E|------------------------------------|






    E         Bm         F#m                 C#m       
    Wednesday morning at five o'clock as the day begins 
e|--16-16-16--17-17-17---17-17-17-17-17-17----16-16-16-16-16-16-|-16-16-16-16--------|
B|--17-17-17--17-17-17---14-14-14-14-14-14----14-14-14-14-14-14-|-14-14-14-14--------|
G|--16-16-16--16-16-16---14-14-14-14-14-14----13-13-13-14-14-14-|-15-15-15-15--------|
D|--------------------------------------------------------------|--------------------|
A|--------------------------------------------------------------|--------------------|
E|--------------------------------------------------------------|--------------------|


     A7                  B
     Silently closing her bedroom door
e|---17----17--17-----17---14-----14--14---14----------|
B|---14----14--14-----14---14-----14--14---14----------|
G|---14----14--14-----14---14-----14--14---14----------|
D|-----------------------------------------------------|
A|-----------------------------------------------------|
E|-----------------------------------------------------|


     A7                         B
     Leaving the note that she hoped would say more
e|---17------17--17--------17---14---------14---14--14----------|
B|---14------14--14--------14---14---------14---14--14----------|
G|---14------14--14--------14---14---------14---14--14----------|
D|--------------------------------------------------------------|
A|--------------------------------------------------------------|
E|--------------------------------------------------------------|



     E            Bm            F#m                 C#m
     She goes downstairs to the kitchen clutching a handkerchief
e|---16-16-16------17-17-17-----17-17-17-17-17-17----16-16-16-16-16-16-|-16-16-16-16--------|
B|---17-17-17------17-17-17-----14-14-14-14-14-14----14-14-14-14-14-14-|-14-14-14-14--------|
G|---16-16-16------16-16-16-----14-14-14-14-14-14----13-13-13-14-14-14-|-15-15-15-15--------|
D|---------------------------------------------------------------------|--------------------|
A|---------------------------------------------------------------------|--------------------|
E|---------------------------------------------------------------------|--------------------|
     

     A7                 B
     Quietly turning the backdoor key
e|---17---17--17-----17----14---14--14---14----------|
B|---14---14--14-----14----14---14--14---14----------|
G|---14---14--14-----14----14---14--14---14----------|
D|-----------------------------------------------------|
A|-----------------------------------------------------|
E|-----------------------------------------------------|

      A7                         B
      Stepping outside she is free
e|------17----17--17-------17---14-----14--14---14----------|
B|------14----14--14-------14---14-----14--14---14----------|
G|------14----14--14-------14---14-----14--14---14----------|
D|----------------------------------------------------------|
A|----------------------------------------------------------|
E|----------------------------------------------------------|



E
She (we gave her most of our lives)

Is leaving  (sacrificed most of our lives)
                   F#m  
Home  (We gave her everything money could)
C#m                       C#m                 C#m
She is leaving home after living alone for so many years


Father snores as his wife gets into her dressing gown,
Picks up the letter that's lying there.
Standing alone at the top of the stairs,
She breaks down and cries to her husband Daddy our baby's gone.
Why would she treat us so thoughtlessly?
How could she do this to me?

She (we never thought of ourselves)
Is leaving  (never a thought for ourselves)
Home  (we struggled hard all our lives to get by)
She's leaving home after living alone for so many years


E      Bm         F#m                 C#m
Friday morning at nine o'clock she is far away
B11                  A   
Waiting to keep the appointment she made
B11       A            B7
Meeting a man from the motor trade


She  (what did we do that was wrong?)
Is having  (we didn't know it was wrong)
Fun  (fun is the one thing that money can't buy)

C#m                       F#m                  C#m      F#m
Something inside that was always denied for so many years
C#m           F#m        A     E
She's leaving home   bye bye    

Added On December 16th, 2013

SHARE

Comments

blog comments powered by Disqus

VERSIONS

ADVERTISEMENT