Beatles Tabs

Something

1 versions

TAB

            Excellent Harrisong

intro riff device

|-----------------------------------------|
|---10--12^(13)-12-10--11~-12~-13~--------|
|-----------------------------------------|
|-----------------------------------------|
|-----------------------------------------|
|-----------------------------------------|

  C                                      Cmaj7 
|--------------------------------------------------------------------------|
|-5------5-5--5------------5-------------5-------5--5-------------5--------|
|-5------5-5--5------------5-------------4-------4--4-------------4--------|
|-5------5-5--5------------5-------------5-------5--5-------------5--------|
|-3------3-3--3------------3-------------3-------3--3-------------3--------|
|--------------------------------------------------------------------------|

  Something     in   the    way   She    Moves
  Somewhere     in   her   smile  she    knows
  Something     in   the    way   she    knows

  C7                                 F
|----------------------------------------------------------------|
|-5------5-5--5-------------5--------1-------1--1------1---------|
|-3------3-3--3-------------3--------2-------2--2------2---------|
|-5------5-5--5-------------5--------3-------3--3------3----2----|
|-3------3-3--3-------------3--------3-------3--3------3---------|
|----------------------------------------------------------------|

       Attracts  me  like  no  other  lover
   That  I   Don't   need  no  other  lover 
   And   All  i   have  to  do  is think of her

 D7                               G
|-2-------2--2----2-----------2------3------3-------3------------|
|-1-------1--1----1-----------1------3------3-------3------------|
|-2-------2--2----2-----------2------0------0-------0------------|
|-0-------0--0----0-----------0------0------0-------0------------|
|-------------------------------------------0-------2------------|
|-----------------------0-----2------3------3-------3------------|

  Something  in   the   way   she   woos   me
  Something  in   her  style that   shows  me
  Something  in   the  things she   shows  me

  Am                                 AMmaj7
|--0----------0----------0----------0---0----0----0----0----0--|
|--1----------1----------1----------1---1----1----1----1----1--|
|--2----------2----------2----------2---1----1----1----1----1--|
|--2----------2----------2----------2---2----2----2----2----2--|
|--0----------0----------0----------0---0----0----0----0----0--|
|--------------------------------------------------------------|

  Don't    wanna    leave    you    now

  Am7                                  D7
|-0--------0-----------0-----------0---2----2-------2------2---|
|-1--------1-----------1-----------1---1----1-------1------1---|
|-0--------0-----------0-----------0---2----2-------2------2---|
|-2--------2-----------2-----------2---0----0-------0------0---|
|-0--------0-----------0-----------0---------------------------|
|--------------------------------------------------------------|

  You  know    i      believe    and   how

  Lead First Time

|-----------------------------------------|
|---10--12^(13)-12-10--11~-12~-13~--------|
|-----------------------------------------|
|-----------------------------------------|
|-----------------------------------------|
|-----------------------------------------|

 Rythm 1st & 2nd

   F                      Bb       Bdim

|--1----------------------1-------1--------|
|--1----------------------3-------3--------|      Fisrt time go back to top
|--2----------------------3-------0--------|
|--3----------------------3-------0--------|      2nd time  go to next
|--3----------------------1-------2--------|
|--1---------------------------------------|


   Lead Second Time

|-----------------------------------------|
|---10--12^(13)-12-10--11~-12~-14~--------|
|-----------------------------------------|
|-----------------------------------------|
|-----------------------------------------|
|-----------------------------------------|  

   Rythm Second

  A
|------------|
|-2----------|
|-2----------|
|-2----------|
|-0----------|
|------------|

  A                      Amaj7                 F#m       F#m/E
|---------------------------------------------------------------|
|---2---2--2---2---2--2--2-----2---2--2--2--2--2----2----2---2--|
|---2---2--2---2---2--2--1-----1---1--1--1--1--2----2----2---2--|
|---2---2--2---2---2--2--2-----2---2--2--2--2--4----4----4---4--|
|---0---0--0---0---0--0--0-----0---0--0--0--0--4----4----4---4--|
|----------------------------------------------2----2----0---0--|

  You're      asking   me       will     my   love    grow?
  You        stick    around   now      it   may    show

     D                 G    D
|----2----2-2----2-----3----2---|
|----3----3-3----3-----3----3---|
|----2----2-2----2-----0----2---|
|----0----0-0----0-----0----0---|
|-------------------------------|
|----------------------3--------|

 I don't know          I  Don't

   A5  G#5 G5  F#5 F5  E5
|--------------------------|
|--------------------------|
|--------------------------|
|--7---6---5---4---3---2---|
|--7---6---5---4---3---2---|
|--5---4---3---2---1---0---|

   Know
   C5  B5  A5  G5  E5  D5
|--------------------------|
|----------------------3---|
|----------------------2---|
|--10--9---7---5---2---0---|
|--10--9---7---5---2-------|
|--8---7---5---3---0-------|

   Know

                            Solo - Rythm same as verse

|----------------------------------------------------------8-8~--10--8-|
|------8~----------8^(10)-(10)-8-----------8-10-8--10^(11)-------------|
|--7/9---9~----7/9---------------9~---7/9------------------------------|
|----------------------------------------------------------------------|
|----------------------------------------------------------------------|
|----------------------------------------------------------------------|

|--10^(12)-10-8----------8-8~------------------------------------------|
|---------------10~--/10---------8-8~\----------------7-7~--10^(12)-10-|
|-----------------------------/9--------------4----/7------------------|
|-----------------------------------------7~-----7---------------------|
|----------------------------------------------------------------------|
|----------------------------------------------------------------------|

|----------------------------------/12-11-10~--------------------------|
|--(12)-10-(12)-10-8~-----14-13-12-------------------------------------|
|---------------------/12----------------------(9)-7-(9)-7-(9)-7-5~----|
|----------------------------------------------------------------------|
|----------------------------------------------------------------------|
|----------------------------------------------------------------------|

|---------------------------------------------10^(12)-10-8-10-8~-------|
|------------------------------------------8----------------------10~--|
|--(9)-7-(9)-7-(9)-7-(9)-7-5~-(9)-7-5---/9-----------------------------|
|----------------------------------------------------------------------|
|----------------------------------------------------------------------|
|----------------------------------------------------------------------|

|--------------------------|
|--/13--10--11~--12~--13~--|
|--------------------------|
|--------------------------|
|--------------------------|
|--------------------------|

              Song end

|--------------------------------17-16-15~---------------------------------|
|-10--/13--10--11~--12~--14~--14-----------10--12^(13)-12-10--11~-12~-13~--|
|--------------------------------------------------------------------------|
|--------------------------------------------------------------------------|
|--------------------------------------------------------------------------|
|--------------------------------------------------------------------------|    

Added On December 16th, 2013

SHARE

Comments

blog comments powered by Disqus

ADVERTISEMENT