Beatles Tabs

The End

3 versions

TAB

            -------------------------------------------------------------------------------
//////////////////////  The End ~by~ The Beatles   \\\\\\\\\\\\\\\\\\\\\\\\
-------------------------------------------------------------------------------
Tabbed by: Arkt1k
Email: switchxskate@gmail.com

This tab is only provided by for the ultimate-guitar.com community!
If you see it on any other tab site, drop me an email! It does NOT belong
anywhere else.

Tuning: Normal; EADGBE

LEGEND IS ON THE BOTTOM~

    A      D      B      E

e|--5------5------7------7-----------------------------------------------------|
B|--5------5------7------7-----------------------------------------------------|
G|--6------7------8------9-----------------------------------------------------|
D|--7------7------9------9-----------------------------------------------------|
A|--7------5------9------7-----4----4----5----6----7----8-----9----5----3----0-|
E|--5-------------7------------5----5----7----8----9----10----11---------------|

__________________^repeat twice^

theres another guitar of course, which is doing this for the second part

  _________________________________
e|---------------------------------\
B|---------------------------------/
G|--6---6---7---8---9---10---11----\
D|--7---7---9---10--11--12---13----/
A|---------------------------------\
E|_________________________________/


    A5           D7                  repeat_________
e|---------------5-----5------------------------------------------------------|
B|---------------7-----7------------------------------------------------------|
G|---------------5-----5------------------------------------------------------|
D|--7-----7------7-----7------------------------------------------------------|
A|--7-----7------5-----5------------------------------------------------------|
E|--5-----5-------------------------------------------------------------------|



e|--------------5----8---------------------------3/5----3/5----8b(10)--------|
B|--5--5--5--5-----5----7p5-----7--5-----------------------------------------|
G|---------------------------7--------7--5-----------------------------------|
D|---------------------------------------------------------------------------|
A|---------------------------------------------------------------------------|
E|---------------------------------------------------------------------------|

e|--8p7p5-----5----5--5--5---------------------------------------------------|
B|---------5----------------8--5----------------5--5--5----------------------|
G|--------------------------------7--5----------5--5--5---x3--7b(9)--5~------|
D|--------------------------------------7-------5--5--5----------------------|
A|--------------------------------------------7------------------------------|
E|---------------------------------------------------------------------------|

e|--8--8--8--8p5-----5-----5--8--10--8--10b(12)-------------------------------|
B|----------------5-----5------------------------------5--5--5-----5--5--5----|
G|--------------------------------------------------------------2-----------2-|
D|----------------------------------------------------------------------------|
A|----------------------------------------------------------------------------|
E|----------------------------------------------------------------------------|

e|------------5---------------------------------------------------------------|
B|--8p7p5--8------------------------------------------------------------------|
G|----------------------------------------------------------------------------|
D|-----------------------------0-------0--------0--2--0-----------------------|
A|-------------------------3b------3b-------3b-----------3--------------------|
E|----------------0--3--5-----------------------------------3--5--------------|

e|----------------------------------------------------------------------------|
B|----------------------------------------------------------------------------|
G|--------------5--5--5--5--------------5--5--5--5----------------------------|
D|--5--5--5--5--------------5--5--5--5----------------------------------------|
A|--------------------------------------------------7--5----------------------|
E|--------------------------------------------------------8--9----------------|


e|-------------12--15b(17)----------------------------------------------------|
B|--8/10--8/13--------------13h15p13------------------------------------------|
G|----------------------------------------------7p5-7p5-7p5-7p5-7p5-7p5-7p5-6-|
D|----------------------------------------5--7--7p5-7p5-7p5-7p5-7p5-7p5-7p5-7-|
A|-------------------------------------7--------------------------------------|
E|----------------------------------------------------------------------------|


This tab is only provided by for the ultimate-guitar.com community!
If you see it on any other tab site, drop me an email! It does NOT belong
anywhere else.

| /  slide up
| h  hammer-on
| p  pull-off
| ~  vibrato
| b(x)  Bend Note to match x'th fret
===============================================================================    

Added On December 16th, 2013

SHARE

Comments

blog comments powered by Disqus

VERSIONS

ADVERTISEMENT