Beatles Tabs

Yellow Submarine Solo

1 versions

TAB

            (-0-1-3-3-0------0-0---------0-0---0-1-3-3-0-----0-0---------0-0--)
(-----------2-0------2-0---------2-----------2-0-----2-0---------2)
(------------------------2-2-----------------------------2-2------)
(-----------------------------------------------------------------)
(-----------------------------------------------------------------)

(----------------0------------------------------------------0----------)
(-0-1---3-3-3-3-------------------------------------3-3-3-3------------)
(-----2------------2-2-2-2-2--2-2-2-2-2--0-0-0-0-0------------2-2-2-2-2)
(----------------------------------------------------------------------)
(----------------------------------------------------------------------)
(----------------------------------------------------------------------)

(---------------------)
(---------------------)
(-2-2-2-2-2--0-0-0-0-0)
(---------------------)
(---------------------)
(---------------------)    

Added On December 16th, 2013

SHARE

Comments

blog comments powered by Disqus

ADVERTISEMENT