Ben Harper Tabs

Fight Outta You

3 versions

TAB

            Ben Harper - Fight Outta You
by Jasper Van Lommel


                 A
They'll look you in the eyes and stone you,		Riff 1

then turn and disown you.
          Fm
Don't you let em take the fight outta you.

                 A
They'll walk all over your name

till they find someone else to blame.
      Fm
Don't let it take the fight outta you.

A
Secrets hide their lies

inside hidden allibies.
      Fm
Don't let it take the fight outta you.

             A
They put the world on a hook,

it's worse every time I look.
      Fm
Don't let em take the fight outta you.

D                        Bm
I would rather take your punch                                 Riff 2
                    Fm
than not give you a shot.
    D                       Bm
I'd rather find out who you are
         Fm
than who you're not.
D                              Bm                   Fm
Should've known better than to mistake business for love.
D                              Bm                 Fm        E
Should've known better than to mistake a fist for love.

It will be in your ?on? until you're not
needed any longer.
Don't let it take the fight outta you.

Don't believe the headlines,
check for yourself sometimes.
Don't let it take the fight outta you.

The lies you live become you,
the love you lose, it numbs you.
Don't let it take the fight outta you.

You say that you've arrived,
that's just a high class bribe.
Don't let it take the fight outta you.


I would rather take your punch
than not give you a shot.
I'd rather find out who you are,
than who you're not.
Should've known better than to mistake business for love.
Should've known better than to mistake a fist for love.


There's always someone younger,
Someone with more hunger.
Don't let it take the fight outta you.

They'll say you're one and only
They'll straight up leave you lonely.
Don't let it take the fight outta you.

Like a transplant patient
waiting for a donor.
Don't let it take the fight outta you.

Like a half empty balloon
after a party in the corner.
Don't let it take the fight outta you.


Riff 1
 A                      Fm
--------------------------2---2--2-2---2--------------------------------------------|
------------2-------------2---2--2-2---2--------------------------------------------|
-4442--4-44---4-2---2-----2---2--2-2---2--------------------------------------------|
-2222--2-22-------4-----4----4---4----4---------------------------------------------|
------------------------4----4---4----4---------------------------------------------|
------------------------2--0h2---2--0h2---------------------------------------------|
                        |    |    |   |

Riff 2
             D       Bm      Fm
-------------10--10\-7--7\----------------------------------------------------------|
---/9-10-9---10--10\-7--7\----------------------------------------------------------|
-------------11--11\-7--7\----------------------------------------------------------|
------------------------------------------------------------------------------------|
------------------------------------------------------------------------------------|
------------------------------------------------------------------------------------|    

Added On December 16th, 2013

SHARE

Comments

blog comments powered by Disqus

VERSIONS

ADVERTISEMENT