Biffy Clyro Tabs

Living Is A Problem Because Everything Dies

7 versions

TAB

            Biffy Clyro
Living is a problem because everything dies
Puzzle
2007

There is a big debate to whether this tab is in drop-D tuning or drop-C but i'm going to 
it into drop-D but it does work both ways and i think Simon plays it in Drop-C as some 
have seen the new set-list which includes this song.

Intro - Palm Muted
E ----------------|
B ----------------|
G ----------------|
D ---5------------|
A ---5------------|
D ---5------------|

Intro 2 - The sudden Bangs
(Mute all the strings except the ones which you are playing)

E ------------------|------6-----6------6-------|
B ------------------|------x-----x------x-------|
G ------------------|------7-----7------7-------|
D ---5--------------|--5-5----5-5----5-5--------|
A ---5---X whatever-|--5-5----5-5----5-5--------|
D ---5--------------|--5-5----5-5----5-5--------|

You do this for all the bangs in the required timing.

Verse:
E-------------------------------------|
B--------------------------1--3-------|
G--------5--7-----------3--------5-5--|
D--5--7--5--5--(x2)--1--1--1--1--5-5--|
A--5--5--5--5--------1--1--1--1--3-3--|
D--5--5--5--5--------1--1--1--1-------|

I'm not sure about the link between the Verse and the Pre-Chorus but heres what i play:

link:
E------------------------------------|
B------------------------------------|
G-----2-2-3----------5---------------|
D--5--------3--(x3)--5---------------|
A--5-----------------3---------------|
D--5---------------------------------|

'I pray to God..'
E------------------------------------|
B------------------------------------|
G--8--7--7---------------------------|
D--8--8--8--(x2)---------------------|
A--6--5--5---------------------------|
D--------5---------------------------|

'BAAAAATHED INNN...'
E----------1-------------------------|
B----------5-------------------------|
G--6---6---3---6--6--5---------------|
D--4---6---3---4--6--3---------------|
A--4---4---1---4--4--3---------------|
D--4-----------4-----3---------------|

'Don't wanna waste all my time..'
E------------------------------------|
B------------------------------------|
G--3-5-6-13-10----5--6---------3-----|
D--3-5-6-13-10----5--6---(x2)--3-----|
A--1-3-4-11-8-----3--4---------1-----|
D------------------------------------|

This is my first tab so i would really appreciate reviews and comments
dude01_182@hotmail.com    

Added On December 16th, 2013

SHARE

Comments

blog comments powered by Disqus