Biffy Clyro Tabs

When You Were Young

1 versions

TAB

            Please forgive any errors which may cause difficulties in interpreting the following
it's been a while since I've done this. However, I would welcome your comments
(fod_jar@hotmail.com).

It should be noted that this tab and any lyrics included, have been based upon Biffy
recent acoustic cover of When You Were Young by the Killers.

To listen to this, please visit http://www.youtube.com/watch?v=myOfUCu6iyc (posted
of TheBrennanHarvey and www.youtube.com).

Intro.

E---------------------------------------|
A------5555555-s-7777777-s-3333333------|
D---------------------------------------|
G------0000000---0000000---0000000------|
B------5555555-s-7777777-s-3333333------|
E------5555555-s-7777777-s-3333333------|          (x2)

E---------------------------------------|
A------777--5555555--777--55555---33333-|
D---------------------------------------|
G------000--0000000--000--00000---00000-|
B------777--7777777--777--77777---33333-|
E------777--7777777--777--77777---33333-|          (x1)

Verse

You sit there in your heartache, waiting on some beautiful boy to...

E--------------------------------33333333333333---------------------|
A-333333333333333333---000-222-------------------33333333333333333--|
D----------------------000-222---00000000000000---------------------|
G-000000000000000000---222-000---00000000000000--00000000000000000--|
B-333333333333333333---333-333---33333333333333--33333333333333333--|
E-333333333333333333---333-333---33333333333333--33333333333333333--|

Save you from your own ways, play forgiveness, now here it comes....

(As above)

He doesn't look a thing like Jesus, but he talks like a gentleman...

E--------------------------------------------------------------------|
A-7777777777777---55555555555555555555555--77777777777--5555555--333-|
D--------------------------------------------------------------------|
G-0000000000000---00000000000000000000000--00000000000--0000000--000-|
B-7777777777777---77777777777777777777777--77777777777--7777777--333-|
E-7777777777777---77777777777777777777777--77777777777--7777777--333-|

Chorus

When you were young....when you were young...

E-----------------------33333333333---------------------------------|
A-3333333333--22222222---------------00000000-----------------------|
D-------------22222222--00000000000--00000000-----------------------|
G-0000000000--00000000--00000000000--22222222-----------------------|
B-3333333333--33333333--33333333333--33333333-----------------------|
E-3333333333--33333333--33333333333--33333333-----------------------|

Other

The Devil's water it ain't so sweet, you don't have to drink right now...

E------------------------------------------------------------------------|
A-3---------------------------------------2------------------------------|
D-----------------------------------------2------------------------------|
G-0---------------------------------------0------------------------------|
B-3---------------------------------------3------------------------------|
E-3---------------------------------------3------------------------------|


But you can dip your feet, every once in a little while...

E------------------------------------------------------------------------|
A---3----------------------------2222222222-000000000000-----------------|
D--------------------------------2222222222-000000000000-----------------|
G---0----------------------------0000000000-222222222222-----------------|
B---3----------------------------3333333333-333333333333-----------------|
E---3----------------------------3333333333-333333333333-----------------|

Outro

When you were young.....................

E---------------------------------------|
A------5555555-s-7777777-s-3333333------|
D---------------------------------------|
G------0000000---0000000---0000000------|
B------5555555-s-7777777-s-3333333------|
E------5555555-s-7777777-s-3333333------|

The basis of the song is largely there, however I would recommend listening to the cover
work from it, in combination with the above. Enjoy!

Mon the Biffy!!!

chris_lad    

Added On December 16th, 2013

SHARE

Comments

blog comments powered by Disqus

ADVERTISEMENT