Biffy Clyro Tabs

Whos Got A Match

6 versions

TAB

            Whos Got A Match Tab by Biffy Clyro


-Bass intro-
The after song singing guiar comes in with this

e-----------------------------------------|
b-----------9-10----------------9-10------|
g-7h8p6-8-9------9-10-7h8p6-8-9------9-10-|
d-----------------------------------------|
a-----------------------------------------|
D-----------------------------------------|


e---------------------------------------------|
b-----------7-8---------------9-10------------|
g-7h8p5-6-7-----7-8-7h8p6-8-9------9-10-7h8p6-| Then some chords
d---------------------------------------------|
a---------------------------------------------|
D---------------------------------------------|


e---------------------------------------------|
b---------------------------------------------|
g-9-9-9-9-10-10-10-7-7-7-7-5-5-5-6-6----------|
d-7-7-7-7--7--7--7-5-5-5-5-3-3-3-3-3----------|
a-7-7-7-7--7--7--7-5-5-5-5-3-3-3-3-3----------|
D-7-7-7-7--7--7--7-5-5-5-5-3-3-3-3-3----------|

This is all i got
any corrections email me at buzzkillerdude@hotmail.com    

Added On December 4th, 2013

SHARE

Comments

blog comments powered by Disqus