Big And Rich Tabs

Radio

2 versions

TAB

            -------------------------------------------------------------------------------
			     Radio - Big & Rich
-------------------------------------------------------------------------------
Tabbed by:
Email:sheeves_19@yahoo.com

Tuning:E-A-D-G-B-E

Intro
E Major     D Major    C Major    D Major    E Major

e|---0------------2----------0---------2----------0-------------------------|
B|---0------------3----------1---------3----------0-------------------------|
G|---1------------2----------0---------2----------1-------------------------|
D|---2------------0----------2---------0----------2-------------------------|
A|---2------------X----------3---------X----------2-------------------------|
E|---0------------X----------X---------X----------0-------------------------|

Verse 1
  E Major     D Major
e|---0------------2---------------------------------------------------------|
B|---0------------3---------------------------------------------------------|
G|---1------------2---------------------------------------------------------|
D|---2------------0---------------------------------------------------------|
A|---2------------X---------------------------------------------------------|
E|---0------------X---------------------------------------------------------|
On the road making noise

   C Major           D Major      E Major

e|----0---------------2--------------0------------------------------------|
B|----1---------------3--------------0------------------------------------|
G|----0---------------2--------------1------------------------------------|
D|----2---------------0--------------2------------------------------------|
A|----3---------------X--------------2------------------------------------|
E|----X---------------X--------------0------------------------------------|
Rockin\' hard for all the girls and boys

 E Major     D Major

e|---0-------------2------------------------------------------------------|
B|---0-------------3------------------------------------------------------|
G|---1-------------2------------------------------------------------------|
D|---2-------------0------------------------------------------------------|
A|---2-------------X------------------------------------------------------|
E|---0-------------X------------------------------------------------------|
We got the groove, we got the songs


   C Major              D Major  E Major

e|----0---------------------2-------0--------------------------------------|
B|----1---------------------3-------0--------------------------------------|
G|----0---------------------2-------1--------------------------------------|
D|----2---------------------0-------2--------------------------------------|
A|----3---------------------X-------2--------------------------------------|
E|----X---------------------X-------0--------------------------------------|
Our kinda music makes you sing a long


E Major         D Major

e|-0--------------2--------------------------------------------------------|
B|-0--------------3--------------------------------------------------------|
G|-1--------------2--------------------------------------------------------|
D|-2--------------0--------------------------------------------------------|
A|-2--------------X--------------------------------------------------------|
E|-0--------------X--------------------------------------------------------|
Well,  jump on up, in your chair

  C Major            D Major    E Major

e|----0-----------------2-----------0--------------------------------------|
B|----1-----------------3-----------0--------------------------------------|
G|----0-----------------2-----------1--------------------------------------|
D|----2-----------------0-----------2--------------------------------------|
A|----3-----------------X-----------2--------------------------------------|
E|----X-----------------X-----------0--------------------------------------|
Everybody throw your hands in the air


  E Major             D Major

e|- 0--------------------2-------------------------------------------------|
B|--0--------------------3-------------------------------------------------|
G|--1--------------------2-------------------------------------------------|
D|--2--------------------0-------------------------------------------------|
A|--2--------------------X-------------------------------------------------|
E|--0--------------------X-------------------------------------------------|
You\'re gonna scream,  \'till it hurts


   C Major                     D Major  E Major

e|----0----------------------------2------0--------------------------------|
B|----1----------------------------3------0--------------------------------|
G|----0----------------------------2------1--------------------------------|
D|----2----------------------------0------2--------------------------------|
A|----3----------------------------X------2--------------------------------|
E|----X----------------------------X------0--------------------------------|
You know you\'re gonna get your dollars worth, well


Chorus
     Bb       F Major                        C Major
e|----1----------1-------------------------------0-------------------------|
B|----3----------1-------------------------------1-------------------------|
G|----3----------2-------------------------------0-------------------------|
D|----3----------3-------------------------------2-------------------------|
A|----1----------3-------------------------------3-------------------------|
E|----X----------1-------------------------------X-------------------------|
Crank it up tonight, when you hear us on your radio(OH, OH)

    Bb              F Major                 C Major

e|---1-----------------1------------------------0----------------------------|
B|---3-----------------1------------------------1----------------------------|
G|---3-----------------2------------------------0----------------------------|
D|---3-----------------3------------------------2----------------------------|
A|---1-----------------3------------------------3----------------------------|
E|---X-----------------1------------------------X----------------------------|
We\'ll take you for a ride anywhere that you wanna go(OH,OH)


   Bb             F Major            C Major

e|----1--------------1------------------0------------------------------------|
B|----3--------------1------------------1------------------------------------|
G|----3--------------2------------------0------------------------------------|
D|----3--------------3------------------2------------------------------------|
A|----1--------------3------------------3------------------------------------|
E|----X--------------1------------------X------------------------------------|
Glad you all could make it out to the big show

                D Major              E Maj

e|-----------------2---------------------0---------------------------------|
B|-----------------3---------------------0---------------------------------|
G|-----------------2---------------------1---------------------------------|
D|-----------------0---------------------2---------------------------------|
A|-----------------X---------------------2---------------------------------|
E|-----------------X---------------------0---------------------------------|
One, two, three, four,  hey hey here we go


E Major     D Major    C Major    D Major    E Major

e|---0------------2----------0---------2----------0------------------------|
B|---0------------3----------1---------3----------0------------------------|
G|---1------------2----------0---------2----------1------------------------|
D|---2------------0----------2---------0----------2------------------------|
A|---2------------X----------3---------X----------2------------------------|
E|---0------------X----------X---------X----------0------------------------|


Verse 2

  E Major    D Major

e|--0-----------2-------|
B|--0-----------3-------|
G|--1-----------2-------|
D|--2-----------0-------|
A|--2-----------X-------|
E|--0-----------X-------|
Big City or a hick town


  C Major               D Major E Major

e|--0-----------------------2------0--|
B|--1-----------------------3------0--|
G|--0-----------------------2------1--|
D|--2-----------------------0------2--|
A|--3-----------------------X------2--|
E|--X-----------------------X------0--|
Sooner or later we\'ll be comin around


  E Major    D Major

e|--0-----------------------2-------|
B|--0-----------------------3-------|
G|--1-----------------------2-------|
D|--2-----------------------0-------|
A|--2-----------------------X-------|
E|--0-----------------------X-------|
We like to party with the rowdy crowd


  C Major                 D Major  E Major

e|--0--------------------------2------0--|
B|--1--------------------------3------0--|
G|--0--------------------------2------1--|
D|--2--------------------------0------2--|
A|--3--------------------------X------2--|
E|--X--------------------------X------0--|
We like our fiddles and our guitars loud


Chorus

     Bb       F Major                        C Major

e|----1----------1-------------------------------0-------------------------|
B|----3----------1-------------------------------1-------------------------|
G|----3----------2-------------------------------0-------------------------|
D|----3----------3-------------------------------2-------------------------|
A|----1----------3-------------------------------3-------------------------|
E|----X----------1-------------------------------X-------------------------|
Crank it up tonight, when you hear us on your radio(OH, OH)

   Bb              F Major                 C Major

e|---1-----------------1------------------------0--------------------------|
B|---3-----------------1------------------------1--------------------------|
G|---3-----------------2------------------------0--------------------------|
D|---3-----------------3------------------------2--------------------------|
A|---1-----------------3------------------------3--------------------------|
E|---X-----------------1------------------------X--------------------------|
We\'ll take you for a ride anywhere that you wanna go(OH,OH)


   Bb             F Major            C Major

e|----1--------------1------------------0--------------------------------|
B|----3--------------1------------------1--------------------------------|
G|----3--------------2------------------0--------------------------------|
D|----3--------------3------------------2--------------------------------|
A|----1--------------3------------------3--------------------------------|
E|----X--------------1------------------X--------------------------------|
Glad you all could make it out to the big show

                D Major              E Maj

e|-----------------2---------------------0--------------------------------|
B|-----------------3---------------------0--------------------------------|
G|-----------------2---------------------1--------------------------------|
D|-----------------0---------------------2--------------------------------|
A|-----------------X---------------------2--------------------------------|
E-----------------X---------------------0---------------------------------|
One, two, three, four,  hey hey here we go


     Bb       F Major                        C Major

e|----1----------1-------------------------------0-------------------------|
B|----3----------1-------------------------------1-------------------------|
G|----3----------2-------------------------------0-------------------------|
D|----3----------3-------------------------------2-------------------------|
A|----1----------3-------------------------------3-------------------------|
E|----X----------1-------------------------------X-------------------------|
Crank it up tonight, when you hear us on your radio(OH, OH)

   Bb              F Major                 C Major

e|---1-----------------1------------------------0--------------------------|
B|---3-----------------1------------------------1--------------------------|
G|---3-----------------2------------------------0--------------------------|
D|---3-----------------3------------------------2--------------------------|
A|---1-----------------3------------------------3--------------------------|
E|---X-----------------1------------------------X--------------------------|
We\'ll take you for a ride anywhere that you wanna go(OH,OH)


   Bb             F Major        C Major
-
e|----1--------------1--------------0-------------------------------------|
B|----3--------------1--------------1-------------------------------------|
G|----3--------------2--------------0-------------------------------------|
D|----3--------------3--------------2-------------------------------------|
A|----1--------------3--------------3-------------------------------------|
E|----X--------------1--------------X-------------------------------------|
Glad you all could make it to the Big & Rich show

                D Major              E Maj

e|-----------------2---------------------0--------------------------------|
B|-----------------3---------------------0--------------------------------|
G|-----------------2---------------------1--------------------------------|
D|-----------------0---------------------2--------------------------------|
A|-----------------X---------------------2--------------------------------|
E|-----------------X---------------------0--------------------------------|
One, two, three, four,  hey hey here we go


| /  slide up
| \\  slide down
| h  hammer-on
| p  pull-off
| ~  vibrato
| +  harmonic
| x  Mute note
===============================================================================    

Added On December 16th, 2013

SHARE

Comments

blog comments powered by Disqus

VERSIONS

ADVERTISEMENT