Big And Rich Tabs

Save A Horse Ride A Cowboy

3 versions

TAB

            Intro
e|------------------------------------|
B|------------------------------------|
G|-------------------0-2-x--0h2-0h2-0-|
D|-0-2-x--0h2-0h2-0--0-2-x--0h2-0h2-0-| x4
A|-0-2-x--0h2-0h2-0--0-0-x--0---0---0-|
E|-0-0-x--0---0---0-------------------|

Verse
e|-------------------------------------|
B|-------------------------------------|
G|-------------------------------------|
D|----------------------2-----4-----5--| x3
A|----2-----4-----5--0--0--0--0--0--0--|
E|-0--0--0--0--0--0--------------------|

e|----------------------------------------|
B|----------------------------------------|
G|----------------------------------------|
D|----------------------2-----4--5-5--5-5-| x1
A|----2-----4-----5--0--0--0--0--0-0--0-0-|
E|-0--0--0--0--0--0-----------------------|

Solo
e|----------------------------17b-|
B|--------------------15b--x------|
G|-14b-14p12h14p12-14b------------|
D|--------------------------------|
A|--------------------------------|
E|--------------------------------|

e|-17-16-14-17p16p14----------------------|
B|-------------------17-16-14-------------|
G|----------------------------16-14----14-|
D|----------------------------------16----|
A|----------------------------------------|
E|----------------------------------------|

e|-------------------------------|
B|-15---15---15---15---15--15--/-|
G|-14b--14b--14b--14b--14b-14br/-|
D|-------------------------------|
A|-------------------------------|
E|-------------------------------|    

Added On December 16th, 2013

SHARE

Comments

blog comments powered by Disqus

VERSIONS

ADVERTISEMENT