Billy Talent Tabs

This Suffering

4 versions

TAB

            -----------------------------------------------------------------------------
                           BILLY TALENT-THIS SUFFERING
-----------------------------------------------------------------------------
This is pretty close and if you have any complaints just don't be to harsh. This is my 
tab by the way.
Only problem with it is that i wasn't really 100% sure about the bridge so that part 
isn't as acurate.Long live Taborama!

Tabbed By: tryhonesty
Email:ustolmybeer@hotmail.com

/= slide

Intro (part A)
|---5--------8---------------------|
|-6---6--5-8-------5-8-------------|
|----------------7-----------------|
|--------------8-------3-2-0---0---|
|----------------------------3-0---|
|------------------------------0---|

Intro (Part B)
|---5--------8/----------------------|
|-6---6--5-8---------5-8-------------|
|------------------7-----------------|
|----------------8-------3-2-0---0---|
|------------------------------3-0---|
|--------------------------------0---|

verse
|-5----------3----------------------------|
|-6----------5-----------5-8--------------|
|-7----------5---------7------------------|
|--------------------8-------3-2-----0----|
|--------------------------------5-3-0----|
|------------------------------------0----|

|-55-5-5-----33-3-3----------------------|
|-66-6-6-----55-5-5------5-8-------------|
|-77-7-7-----55-5-5----7-----------------|
|--------------------8--------3-2-----0--|
|---------------------------------5-3-0--|
|-------------------------------------0--|

Pre chorus
|--------------------------------------|
|--------------------------------------|
|-7-7-7-7-7-7-9-10--7-7-7-7-7-7-9-10---|
|--8-8-8-8-8-8-8--8--7-7-7-7-7-7-7--7--|
|--------------------------------------|
|--------------------------------------|

|--------------------------------------|
|-11-11-9--10---11-11--9--10-----------|
|---7--7-12--12---7--12--12------------|
|--------------------------------------|
|--------------------------------------|
|--------------------------------------|

|--------------------------------------|
|-10--10--10--10-----------------------|
|---10--10--10--10-9--9--9--9----------|
|-------------------10-10-10-10--------|
|--------------------------------------|
|--------------------------------------|

Chorus 1
e|------------------------------------------------------------------------|
B|-3-3-3-3-3-3-3-3-3-3-3-3-3-3-3-6-6-6-6-6-6-6-6-6-6-6-6-6-6-6-6----------|
G|-3-3-3-3-3-3-3-3-3-3-3-3-3-3-3-7-7-7-7-7-7-7-7-7-7-7-7-7-7-7-7----------|
D|-3-3-3-3-3-3-3-3-3-3-3-3-3-3-3-7-7-7-7-7-7-7-7-7-7-7-7-7-7-7-7----------|
A|-1-1-1-1-1-1-1-1-1-1-1-1-1-1-1-5-5-5-5-5-5-5-5-5-5-5-5-5-5-5-5----------|
D|------------------------------------------------------------------------|

e|------------------------------------------------------------------------|
B|-------------------------------------------------5----------------------|
G|-------------------------------------------------5----------------------|
D|-5-5-5-5-5-5-5-5-5-5-5-5-5-5-5-5-3-3-3-3-3-3-3-3-5----------------------|
A|-5-5-5-5-5-5-5-5-5-5-5-5-5-5-5-5-3-3-3-3-3-3-3-3-3----------------------|
D|-5-5-5-5-5-5-5-5-5-5-5-5-5-5-5-5-3-3-3-3-3-3-3-3------------------------|


Chorus 2
e|------------------------------------------------------------------------|
B|-3-3-3-3-3-3-3-3-3-3-3-3-3-3-3-6-6-6-6-6-6-6-6-6-6-6-6-6-6-6-6----------|
G|-3-3-3-3-3-3-3-3-3-3-3-3-3-3-3-7-7-7-7-7-7-7-7-7-7-7-7-7-7-7-7----------|
D|-3-3-3-3-3-3-3-3-3-3-3-3-3-3-3-7-7-7-7-7-7-7-7-7-7-7-7-7-7-7-7----------|
A|-1-1-1-1-1-1-1-1-1-1-1-1-1-1-1-5-5-5-5-5-5-5-5-5-5-5-5-5-5-5-5----------|
D|------------------------------------------------------------------------|

e|------------------------------------------------------------------------|
B|-------------------------------------------------5-5-5-5-5-5-5-5--------|
G|-------------------------------------------------5-5-5-5-5-5-5-5--------|
D|-5-5-5-5-5-5-5-5-5-5-5-5-5-5-5-5-3-3-3-3-3-3-3-3-5-5-5-5-5-5-5-5--------|
A|-5-5-8-8-7-7-8-8-5-5-8-8-7-7-8-8-3-3-3-3-3-3-3-3-3-3-3-3-3-3-3-3--------|
D|-5-5-5-5-5-5-5-5-5-5-5-5-5-5-5-5-3-3-3-3-3-3-3-3------------------------|


Bridge
e|-------10-10---10--10-12-12---12--10-10----------8-8---8--10-10--10-8-8-|
B|-------10-10---10--10-10-10---10--10-10----------8-8---8--8--8---8--8-8-|
G|-------10-10---10--10-10-10---10--10-10----------9-9---9--9--9---9--9-9-|
D|-0-0-0----------------------------------10-10-10------------------------|
A|-0-0-0----------------------------------10-10-10------------------------|
D|-0-0-0----------------------------------10-10-10------------------------|

e|-----------8--8----8---10-10---10--8--8--5-5-5-5-5-5-5-5-5-5-5-5-5-5-5--|
B|-----------10-10---10--10-10---10--10-10-6-6-6-6-6-6-6-6-6-6-6-6-6-6-6--|
G|-----------10-10---10--10-10---10--10-10-5-5-5-5-5-5-5-5-5-5-5-5-5-5-5--|
D|-10-10--10-------------------------------3-3-3-3-3-3-3-3-3-3-3-3-3-3-3--|
A|-8--8---8--------------------------------3-3-3-3-3-3-3-3-3-3-3-3-3-3-3--|
D|-8--8---8--------------------------------3-3-3-3-3-3-3-3-3-3-3-3-3-3-3--|


Thats it.Hope you enjoy it and plz rate!:D
order:

Intro(part A)-[x2]
Intro(Part B)-[x2]
Verse---------[x2]
Pre-chorus----[x1]
Chorus 1------[x1]
Intro (part B)[x1]
Verse---------[x4]
Pre-chorus----[x1]
Chorus 2------[x2]
Bridge--------[x3]
Pre-chorus----[x2]
Chorus--------[x6]
Outro---------[x1]    

Added On December 16th, 2013

SHARE

Comments

blog comments powered by Disqus

VERSIONS

ADVERTISEMENT