Blake Shelton Tabs

Playboys Of The Southwestern World Hey Romeo

1 versions

TAB

            Playboys Of The Southwestern World Hey Romeo Chords by Blake Shelton

Playboys of the Southwestern World (Hey Romeo)


** You play this towards the end where the "**"'s are.

e----2--3---3--2-------e
B----3--3---3--3-------B
G----2--0---0--2-------G
D--0----0---0--0-------D
A------3---2---0-------A
E----------------------E


INTRO
G
G
e |---|---|-x-|---|---|
B |---|---|---|---|---|
G |---|---|---|---|---|
D |---|---|---|---|---|
A |---|-x-|---|---|---|
E |---|---|-x-|---|---|
C
C
e |---|---|-x-|---|---|
B |-x-|---|---|---|---|
G |---|---|---|---|---|
D |---|-x-|---|---|---|
A |---|---|-x-|---|---|
E |---|---|---|---|---|
G
G
e |---|---|-x-|---|---|
B |---|---|---|---|---|
G |---|---|---|---|---|
D |---|---|---|---|---|
A |---|-x-|---|---|---|
E |---|---|-x-|---|---|
D
D
e |---|-x-|---|---|---|
B |---|---|-x-|---|---|
G |---|-x-|---|---|---|
D |---|---|---|---|---|
A |---|---|---|---|---|
E |---|---|---|---|---|
G
G
e |---|---|-x-|---|---|
B |---|---|---|---|---|
G |---|---|---|---|---|
D |---|---|---|---|---|
A |---|-x-|---|---|---|
E |---|---|-x-|---|---|
C
C
e |---|---|-x-|---|---|
B |-x-|---|---|---|---|
G |---|---|---|---|---|
D |---|-x-|---|---|---|
A |---|---|-x-|---|---|
E |---|---|---|---|---|
G
G
e |---|---|-x-|---|---|
B |---|---|---|---|---|
G |---|---|---|---|---|
D |---|---|---|---|---|
A |---|-x-|---|---|---|
E |---|---|-x-|---|---|
D
D
e |---|-x-|---|---|---|
B |---|---|-x-|---|---|
G |---|-x-|---|---|---|
D |---|---|---|---|---|
A |---|---|---|---|---|
E |---|---|---|---|---|
This is a song about best friends - - G
G
e |---|---|-x-|---|---|
B |---|---|---|---|---|
G |---|---|---|---|---|
D |---|---|---|---|---|
A |---|-x-|---|---|---|
E |---|---|-x-|---|---|
Cadd9
Cadd9
e |---|---|---|---|---|
B |---|---|-x-|---|---|
G |---|---|---|---|---|
D |---|-x-|---|---|---|
A |---|---|-x-|---|---|
E |---|---|---|---|---|
G
G
e |---|---|-x-|---|---|
B |---|---|---|---|---|
G |---|---|---|---|---|
D |---|---|---|---|---|
A |---|-x-|---|---|---|
E |---|---|-x-|---|---|
D
D
e |---|-x-|---|---|---|
B |---|---|-x-|---|---|
G |---|-x-|---|---|---|
D |---|---|---|---|---|
A |---|---|---|---|---|
E |---|---|---|---|---|
John Roy was a boy I knew since he was three and I was two G
G
e |---|---|-x-|---|---|
B |---|---|---|---|---|
G |---|---|---|---|---|
D |---|---|---|---|---|
A |---|-x-|---|---|---|
E |---|---|-x-|---|---|
Cadd9
Cadd9
e |---|---|---|---|---|
B |---|---|-x-|---|---|
G |---|---|---|---|---|
D |---|-x-|---|---|---|
A |---|---|-x-|---|---|
E |---|---|---|---|---|
D
D
e |---|-x-|---|---|---|
B |---|---|-x-|---|---|
G |---|-x-|---|---|---|
D |---|---|---|---|---|
A |---|---|---|---|---|
E |---|---|---|---|---|
Grew up two little houses down from me G
G
e |---|---|-x-|---|---|
B |---|---|---|---|---|
G |---|---|---|---|---|
D |---|---|---|---|---|
A |---|-x-|---|---|---|
E |---|---|-x-|---|---|
Cadd9
Cadd9
e |---|---|---|---|---|
B |---|---|-x-|---|---|
G |---|---|---|---|---|
D |---|-x-|---|---|---|
A |---|---|-x-|---|---|
E |---|---|---|---|---|
The only bad apples on our family tree G
G
e |---|---|-x-|---|---|
B |---|---|---|---|---|
G |---|---|---|---|---|
D |---|---|---|---|---|
A |---|-x-|---|---|---|
E |---|---|-x-|---|---|
D
D
e |---|-x-|---|---|---|
B |---|---|-x-|---|---|
G |---|-x-|---|---|---|
D |---|---|---|---|---|
A |---|---|---|---|---|
E |---|---|---|---|---|
Kinda ripened and rottened in our puberty G
G
e |---|---|-x-|---|---|
B |---|---|---|---|---|
G |---|---|---|---|---|
D |---|---|---|---|---|
A |---|-x-|---|---|---|
E |---|---|-x-|---|---|
Cadd9
Cadd9
e |---|---|---|---|---|
B |---|---|-x-|---|---|
G |---|---|---|---|---|
D |---|-x-|---|---|---|
A |---|---|-x-|---|---|
E |---|---|---|---|---|
D
D
e |---|-x-|---|---|---|
B |---|---|-x-|---|---|
G |---|-x-|---|---|---|
D |---|---|---|---|---|
A |---|---|---|---|---|
E |---|---|---|---|---|
Two kindred spirits, bound by destiny. Em
Em
e |---|---|---|---|---|
B |---|---|---|---|---|
G |---|---|---|---|---|
D |---|-x-|---|---|---|
A |---|-x-|---|---|---|
E |---|---|---|---|---|
D
D
e |---|-x-|---|---|---|
B |---|---|-x-|---|---|
G |---|-x-|---|---|---|
D |---|---|---|---|---|
A |---|---|---|---|---|
E |---|---|---|---|---|
Well, now I was smart but I lacked ambition, C
C
e |---|---|-x-|---|---|
B |-x-|---|---|---|---|
G |---|---|---|---|---|
D |---|-x-|---|---|---|
A |---|---|-x-|---|---|
E |---|---|---|---|---|
G
G
e |---|---|-x-|---|---|
B |---|---|---|---|---|
G |---|---|---|---|---|
D |---|---|---|---|---|
A |---|-x-|---|---|---|
E |---|---|-x-|---|---|
C
C
e |---|---|-x-|---|---|
B |-x-|---|---|---|---|
G |---|---|---|---|---|
D |---|-x-|---|---|---|
A |---|---|-x-|---|---|
E |---|---|---|---|---|
G/B
G/B
e |-x-|---|---|---|---|
B |---|-x-|---|---|---|
G |-x-|---|---|---|---|
D |---|---|-x-|---|---|
A |---|---|---|-x-|---|
E |-x-|---|---|---|---|
Am
Am
e |---|---|---|---|---|
B |-x-|---|---|---|---|
G |---|-x-|---|---|---|
D |---|-x-|---|---|---|
A |---|---|---|---|---|
E |---|---|---|---|---|
Johnny was wild and no inhibition was about like mixin' fire and Am7
Am7
e |---|---|---|---|---|
B |-x-|---|---|---|---|
G |---|---|---|---|---|
D |---|-x-|---|---|---|
A |---|---|---|---|---|
E |---|---|---|---|---|
D
D
e |---|-x-|---|---|---|
B |---|---|-x-|---|---|
G |---|-x-|---|---|---|
D |---|---|---|---|---|
A |---|---|---|---|---|
E |---|---|---|---|---|
gasoline and he said, *CHORUS* G
G
e |---|---|-x-|---|---|
B |---|---|---|---|---|
G |---|---|---|---|---|
D |---|---|---|---|---|
A |---|-x-|---|---|---|
E |---|---|-x-|---|---|
Cadd9
Cadd9
e |---|---|---|---|---|
B |---|---|-x-|---|---|
G |---|---|---|---|---|
D |---|-x-|---|---|---|
A |---|---|-x-|---|---|
E |---|---|---|---|---|
G
G
e |---|---|-x-|---|---|
B |---|---|---|---|---|
G |---|---|---|---|---|
D |---|---|---|---|---|
A |---|-x-|---|---|---|
E |---|---|-x-|---|---|
D
D
e |---|-x-|---|---|---|
B |---|---|-x-|---|---|
G |---|-x-|---|---|---|
D |---|---|---|---|---|
A |---|---|---|---|---|
E |---|---|---|---|---|
"Hey, Romeo, let's go down to Mexico G
G
e |---|---|-x-|---|---|
B |---|---|---|---|---|
G |---|---|---|---|---|
D |---|---|---|---|---|
A |---|-x-|---|---|---|
E |---|---|-x-|---|---|
Cadd9
Cadd9
e |---|---|---|---|---|
B |---|---|-x-|---|---|
G |---|---|---|---|---|
D |---|-x-|---|---|---|
A |---|---|-x-|---|---|
E |---|---|---|---|---|
Chase senoritas, drink ourselves silly, G
G
e |---|---|-x-|---|---|
B |---|---|---|---|---|
G |---|---|---|---|---|
D |---|---|---|---|---|
A |---|-x-|---|---|---|
E |---|---|-x-|---|---|
D
D
e |---|-x-|---|---|---|
B |---|---|-x-|---|---|
G |---|-x-|---|---|---|
D |---|---|---|---|---|
A |---|---|---|---|---|
E |---|---|---|---|---|
Show them Mexican girls a couple real hillbillys. G
G
e |---|---|-x-|---|---|
B |---|---|---|---|---|
G |---|---|---|---|---|
D |---|---|---|---|---|
A |---|-x-|---|---|---|
E |---|---|-x-|---|---|
Cadd9
Cadd9
e |---|---|---|---|---|
B |---|---|-x-|---|---|
G |---|---|---|---|---|
D |---|-x-|---|---|---|
A |---|---|-x-|---|---|
E |---|---|---|---|---|
Got a pocket full of cash and that old Ford truck, G
G
e |---|---|-x-|---|---|
B |---|---|---|---|---|
G |---|---|---|---|---|
D |---|---|---|---|---|
A |---|-x-|---|---|---|
E |---|---|-x-|---|---|
D
D
e |---|-x-|---|---|---|
B |---|---|-x-|---|---|
G |---|-x-|---|---|---|
D |---|---|---|---|---|
A |---|---|---|---|---|
E |---|---|---|---|---|
Fuzzy cat hangin from the mirror hook. C
C
e |---|---|-x-|---|---|
B |-x-|---|---|---|---|
G |---|---|---|---|---|
D |---|-x-|---|---|---|
A |---|---|-x-|---|---|
E |---|---|---|---|---|
G/B
G/B
e |-x-|---|---|---|---|
B |---|-x-|---|---|---|
G |-x-|---|---|---|---|
D |---|---|-x-|---|---|
A |---|---|---|-x-|---|
E |-x-|---|---|---|---|
Am
Am
e |---|---|---|---|---|
B |-x-|---|---|---|---|
G |---|-x-|---|---|---|
D |---|-x-|---|---|---|
A |---|---|---|---|---|
E |---|---|---|---|---|
Am7
Am7
e |---|---|---|---|---|
B |-x-|---|---|---|---|
G |---|---|---|---|---|
D |---|-x-|---|---|---|
A |---|---|---|---|---|
E |---|---|---|---|---|
D
D
e |---|-x-|---|---|---|
B |---|---|-x-|---|---|
G |---|-x-|---|---|---|
D |---|---|---|---|---|
A |---|---|---|---|---|
E |---|---|---|---|---|
Said don't you know all those little browneyed girls G
G
e |---|---|-x-|---|---|
B |---|---|---|---|---|
G |---|---|---|---|---|
D |---|---|---|---|---|
A |---|-x-|---|---|---|
E |---|---|-x-|---|---|
Want playboys of the southwestern world." Cadd9
Cadd9
e |---|---|---|---|---|
B |---|---|-x-|---|---|
G |---|---|---|---|---|
D |---|-x-|---|---|---|
A |---|---|-x-|---|---|
E |---|---|---|---|---|
G
G
e |---|---|-x-|---|---|
B |---|---|---|---|---|
G |---|---|---|---|---|
D |---|---|---|---|---|
A |---|-x-|---|---|---|
E |---|---|-x-|---|---|
D
D
e |---|-x-|---|---|---|
B |---|---|-x-|---|---|
G |---|-x-|---|---|---|
D |---|---|---|---|---|
A |---|---|---|---|---|
E |---|---|---|---|---|
La la la la la la la la la la la la la G
G
e |---|---|-x-|---|---|
B |---|---|---|---|---|
G |---|---|---|---|---|
D |---|---|---|---|---|
A |---|-x-|---|---|---|
E |---|---|-x-|---|---|
Cadd9
Cadd9
e |---|---|---|---|---|
B |---|---|-x-|---|---|
G |---|---|---|---|---|
D |---|-x-|---|---|---|
A |---|---|-x-|---|---|
E |---|---|---|---|---|
G
G
e |---|---|-x-|---|---|
B |---|---|---|---|---|
G |---|---|---|---|---|
D |---|---|---|---|---|
A |---|-x-|---|---|---|
E |---|---|-x-|---|---|
D
D
e |---|-x-|---|---|---|
B |---|---|-x-|---|---|
G |---|-x-|---|---|---|
D |---|---|---|---|---|
A |---|---|---|---|---|
E |---|---|---|---|---|
Sha la la la la la la la la la la la la G
G
e |---|---|-x-|---|---|
B |---|---|---|---|---|
G |---|---|---|---|---|
D |---|---|---|---|---|
A |---|-x-|---|---|---|
E |---|---|-x-|---|---|
Cadd9
Cadd9
e |---|---|---|---|---|
B |---|---|-x-|---|---|
G |---|---|---|---|---|
D |---|-x-|---|---|---|
A |---|---|-x-|---|---|
E |---|---|---|---|---|
Along around our 18th year, G
G
e |---|---|-x-|---|---|
B |---|---|---|---|---|
G |---|---|---|---|---|
D |---|---|---|---|---|
A |---|-x-|---|---|---|
E |---|---|-x-|---|---|
D
D
e |---|-x-|---|---|---|
B |---|---|-x-|---|---|
G |---|-x-|---|---|---|
D |---|---|---|---|---|
A |---|---|---|---|---|
E |---|---|---|---|---|
Found two airplane tickets to the hell outta here. G
G
e |---|---|-x-|---|---|
B |---|---|---|---|---|
G |---|---|---|---|---|
D |---|---|---|---|---|
A |---|-x-|---|---|---|
E |---|---|-x-|---|---|
Cadd9
Cadd9
e |---|---|---|---|---|
B |---|---|-x-|---|---|
G |---|---|---|---|---|
D |---|-x-|---|---|---|
A |---|---|-x-|---|---|
E |---|---|---|---|---|
D
D
e |---|-x-|---|---|---|
B |---|---|-x-|---|---|
G |---|-x-|---|---|---|
D |---|---|---|---|---|
A |---|---|---|---|---|
E |---|---|---|---|---|
Got scholarships to some small town school in Texas. G
G
e |---|---|-x-|---|---|
B |---|---|---|---|---|
G |---|---|---|---|---|
D |---|---|---|---|---|
A |---|-x-|---|---|---|
E |---|---|-x-|---|---|
Cadd9
Cadd9
e |---|---|---|---|---|
B |---|---|-x-|---|---|
G |---|---|---|---|---|
D |---|-x-|---|---|---|
A |---|---|-x-|---|---|
E |---|---|---|---|---|
We learned to drink Sangria's til the dawn's early light, G
G
e |---|---|-x-|---|---|
B |---|---|---|---|---|
G |---|---|---|---|---|
D |---|---|---|---|---|
A |---|-x-|---|---|---|
E |---|---|-x-|---|---|
D
D
e |---|-x-|---|---|---|
B |---|---|-x-|---|---|
G |---|-x-|---|---|---|
D |---|---|---|---|---|
A |---|---|---|---|---|
E |---|---|---|---|---|
Eat Ranchero's and throw up all night, G
G
e |---|---|-x-|---|---|
B |---|---|---|---|---|
G |---|---|---|---|---|
D |---|---|---|---|---|
A |---|-x-|---|---|---|
E |---|---|-x-|---|---|
Cadd9
Cadd9
e |---|---|---|---|---|
B |---|---|-x-|---|---|
G |---|---|---|---|---|
D |---|-x-|---|---|---|
A |---|---|-x-|---|---|
E |---|---|---|---|---|
D
D
e |---|-x-|---|---|---|
B |---|---|-x-|---|---|
G |---|-x-|---|---|---|
D |---|---|---|---|---|
A |---|---|---|---|---|
E |---|---|---|---|---|
And tell those daddy's girls we were majorin' in the rodeo. Em
Em
e |---|---|---|---|---|
B |---|---|---|---|---|
G |---|---|---|---|---|
D |---|-x-|---|---|---|
A |---|-x-|---|---|---|
E |---|---|---|---|---|
D
D
e |---|-x-|---|---|---|
B |---|---|-x-|---|---|
G |---|-x-|---|---|---|
D |---|---|---|---|---|
A |---|---|---|---|---|
E |---|---|---|---|---|
Aw, but my favorite memory in school that fall C
C
e |---|---|-x-|---|---|
B |-x-|---|---|---|---|
G |---|---|---|---|---|
D |---|-x-|---|---|---|
A |---|---|-x-|---|---|
E |---|---|---|---|---|
G
G
e |---|---|-x-|---|---|
B |---|---|---|---|---|
G |---|---|---|---|---|
D |---|---|---|---|---|
A |---|-x-|---|---|---|
E |---|---|-x-|---|---|
Was the night John Roy came runnin' down in the hall C
C
e |---|---|-x-|---|---|
B |-x-|---|---|---|---|
G |---|---|---|---|---|
D |---|-x-|---|---|---|
A |---|---|-x-|---|---|
E |---|---|---|---|---|
G/B
G/B
e |-x-|---|---|---|---|
B |---|-x-|---|---|---|
G |-x-|---|---|---|---|
D |---|---|-x-|---|---|
A |---|---|---|-x-|---|
E |-x-|---|---|---|---|
Am
Am
e |---|---|---|---|---|
B |-x-|---|---|---|---|
G |---|-x-|---|---|---|
D |---|-x-|---|---|---|
A |---|---|---|---|---|
E |---|---|---|---|---|
Am7
Am7
e |---|---|---|---|---|
B |-x-|---|---|---|---|
G |---|---|---|---|---|
D |---|-x-|---|---|---|
A |---|---|---|---|---|
E |---|---|---|---|---|
D
D
e |---|-x-|---|---|---|
B |---|---|-x-|---|---|
G |---|-x-|---|---|---|
D |---|---|---|---|---|
A |---|---|---|---|---|
E |---|---|---|---|---|
Wearin nothing but cowboy boots and a big sombrero and he was yellin' *REPEAT CHORUS* C
C
e |---|---|-x-|---|---|
B |-x-|---|---|---|---|
G |---|---|---|---|---|
D |---|-x-|---|---|---|
A |---|---|-x-|---|---|
E |---|---|---|---|---|
G
G
e |---|---|-x-|---|---|
B |---|---|---|---|---|
G |---|---|---|---|---|
D |---|---|---|---|---|
A |---|-x-|---|---|---|
E |---|---|-x-|---|---|
And I said we had a little change in plans, C
C
e |---|---|-x-|---|---|
B |-x-|---|---|---|---|
G |---|---|---|---|---|
D |---|-x-|---|---|---|
A |---|---|-x-|---|---|
E |---|---|---|---|---|
G
G
e |---|---|-x-|---|---|
B |---|---|---|---|---|
G |---|---|---|---|---|
D |---|---|---|---|---|
A |---|-x-|---|---|---|
E |---|---|-x-|---|---|
Like when Paul McCartney got busted in Japan. C
C
e |---|---|-x-|---|---|
B |-x-|---|---|---|---|
G |---|---|---|---|---|
D |---|-x-|---|---|---|
A |---|---|-x-|---|---|
E |---|---|---|---|---|
G/B
G/B
e |-x-|---|---|---|---|
B |---|-x-|---|---|---|
G |-x-|---|---|---|---|
D |---|---|-x-|---|---|
A |---|---|---|-x-|---|
E |-x-|---|---|---|---|
Am
Am
e |---|---|---|---|---|
B |-x-|---|---|---|---|
G |---|-x-|---|---|---|
D |---|-x-|---|---|---|
A |---|---|---|---|---|
E |---|---|---|---|---|
Am7
Am7
e |---|---|---|---|---|
B |-x-|---|---|---|---|
G |---|---|---|---|---|
D |---|-x-|---|---|---|
A |---|---|---|---|---|
E |---|---|---|---|---|
D
D
e |---|-x-|---|---|---|
B |---|---|-x-|---|---|
G |---|-x-|---|---|---|
D |---|---|---|---|---|
A |---|---|---|---|---|
E |---|---|---|---|---|
** And I said we got waylaid when we set foot on Mexican soil. G
G
e |---|---|-x-|---|---|
B |---|---|---|---|---|
G |---|---|---|---|---|
D |---|---|---|---|---|
A |---|-x-|---|---|---|
E |---|---|-x-|---|---|
(1) C
C
e |---|---|-x-|---|---|
B |-x-|---|---|---|---|
G |---|---|---|---|---|
D |---|-x-|---|---|---|
A |---|---|-x-|---|---|
E |---|---|---|---|---|
(1) You see, the borderman guard with the fumanchu mustache G
G
e |---|---|-x-|---|---|
B |---|---|---|---|---|
G |---|---|---|---|---|
D |---|---|---|---|---|
A |---|-x-|---|---|---|
E |---|---|-x-|---|---|
(1) D
D
e |---|-x-|---|---|---|
B |---|---|-x-|---|---|
G |---|-x-|---|---|---|
D |---|---|---|---|---|
A |---|---|---|---|---|
E |---|---|---|---|---|
(1) Kinda stumbled upon John's pocket of American cash. G
G
e |---|---|-x-|---|---|
B |---|---|---|---|---|
G |---|---|---|---|---|
D |---|---|---|---|---|
A |---|-x-|---|---|---|
E |---|---|-x-|---|---|
(1) C
C
e |---|---|-x-|---|---|
B |-x-|---|---|---|---|
G |---|---|---|---|---|
D |---|-x-|---|---|---|
A |---|---|-x-|---|---|
E |---|---|---|---|---|
(1) D
D
e |---|-x-|---|---|---|
B |---|---|-x-|---|---|
G |---|-x-|---|---|---|
D |---|---|---|---|---|
A |---|---|---|---|---|
E |---|---|---|---|---|
(1) He said "Doin' a little funny business in Mexcio, Amigo?" Em
Em
e |---|---|---|---|---|
B |---|---|---|---|---|
G |---|---|---|---|---|
D |---|-x-|---|---|---|
A |---|-x-|---|---|---|
E |---|---|---|---|---|
(1) D
D
e |---|-x-|---|---|---|
B |---|---|-x-|---|---|
G |---|-x-|---|---|---|
D |---|---|---|---|---|
A |---|---|---|---|---|
E |---|---|---|---|---|
(1) And all I could think about was savin' my own tail C
C
e |---|---|-x-|---|---|
B |-x-|---|---|---|---|
G |---|---|---|---|---|
D |---|-x-|---|---|---|
A |---|---|-x-|---|---|
E |---|---|---|---|---|
(1) G
G
e |---|---|-x-|---|---|
B |---|---|---|---|---|
G |---|---|---|---|---|
D |---|---|---|---|---|
A |---|-x-|---|---|---|
E |---|---|-x-|---|---|
(1) When he mentioned 10 years in a Mexican jail C
C
e |---|---|-x-|---|---|
B |-x-|---|---|---|---|
G |---|---|---|---|---|
D |---|-x-|---|---|---|
A |---|---|-x-|---|---|
E |---|---|---|---|---|
(1) G/B
G/B
e |-x-|---|---|---|---|
B |---|-x-|---|---|---|
G |-x-|---|---|---|---|
D |---|---|-x-|---|---|
A |---|---|---|-x-|---|
E |-x-|---|---|---|---|
(1) Am
Am
e |---|---|---|---|---|
B |-x-|---|---|---|---|
G |---|-x-|---|---|---|
D |---|-x-|---|---|---|
A |---|---|---|---|---|
E |---|---|---|---|---|
(1) So I pointed at John Roy and said Am7
Am7
e |---|---|---|---|---|
B |-x-|---|---|---|---|
G |---|---|---|---|---|
D |---|-x-|---|---|---|
A |---|---|---|---|---|
E |---|---|---|---|---|
(1) D
D
e |---|-x-|---|---|---|
B |---|---|-x-|---|---|
G |---|-x-|---|---|---|
D |---|---|---|---|---|
A |---|---|---|---|---|
E |---|---|---|---|---|
** "It's all his...now please let me go. --- It was your idea, genius. I was just layin' there in bed when you said.." (third chorus all one strum until 'got a pocket full of cash') G
G
e |---|---|-x-|---|---|
B |---|---|---|---|---|
G |---|---|---|---|---|
D |---|---|---|---|---|
A |---|-x-|---|---|---|
E |---|---|-x-|---|---|
Cadd9
Cadd9
e |---|---|---|---|---|
B |---|---|-x-|---|---|
G |---|---|---|---|---|
D |---|-x-|---|---|---|
A |---|---|-x-|---|---|
E |---|---|---|---|---|
G
G
e |---|---|-x-|---|---|
B |---|---|---|---|---|
G |---|---|---|---|---|
D |---|---|---|---|---|
A |---|-x-|---|---|---|
E |---|---|-x-|---|---|
D
D
e |---|-x-|---|---|---|
B |---|---|-x-|---|---|
G |---|-x-|---|---|---|
D |---|---|---|---|---|
A |---|---|---|---|---|
E |---|---|---|---|---|
"Hey, Romeo, let's go down to Mexico G
G
e |---|---|-x-|---|---|
B |---|---|---|---|---|
G |---|---|---|---|---|
D |---|---|---|---|---|
A |---|-x-|---|---|---|
E |---|---|-x-|---|---|
Cadd9
Cadd9
e |---|---|---|---|---|
B |---|---|-x-|---|---|
G |---|---|---|---|---|
D |---|-x-|---|---|---|
A |---|---|-x-|---|---|
E |---|---|---|---|---|
Chase senoritas, drink ourselves silly, G
G
e |---|---|-x-|---|---|
B |---|---|---|---|---|
G |---|---|---|---|---|
D |---|---|---|---|---|
A |---|-x-|---|---|---|
E |---|---|-x-|---|---|
D
D
e |---|-x-|---|---|---|
B |---|---|-x-|---|---|
G |---|-x-|---|---|---|
D |---|---|---|---|---|
A |---|---|---|---|---|
E |---|---|---|---|---|
Show them Mexican girls a couple real hillbillys. G
G
e |---|---|-x-|---|---|
B |---|---|---|---|---|
G |---|---|---|---|---|
D |---|---|---|---|---|
A |---|-x-|---|---|---|
E |---|---|-x-|---|---|
Cadd9
Cadd9
e |---|---|---|---|---|
B |---|---|-x-|---|---|
G |---|---|---|---|---|
D |---|-x-|---|---|---|
A |---|---|-x-|---|---|
E |---|---|---|---|---|
Got a pocket full of cash and that old Ford truck, G
G
e |---|---|-x-|---|---|
B |---|---|---|---|---|
G |---|---|---|---|---|
D |---|---|---|---|---|
A |---|-x-|---|---|---|
E |---|---|-x-|---|---|
D
D
e |---|-x-|---|---|---|
B |---|---|-x-|---|---|
G |---|-x-|---|---|---|
D |---|---|---|---|---|
A |---|---|---|---|---|
E |---|---|---|---|---|
Fuzzy cat hangin from the mirror hook. C
C
e |---|---|-x-|---|---|
B |-x-|---|---|---|---|
G |---|---|---|---|---|
D |---|-x-|---|---|---|
A |---|---|-x-|---|---|
E |---|---|---|---|---|
G/B
G/B
e |-x-|---|---|---|---|
B |---|-x-|---|---|---|
G |-x-|---|---|---|---|
D |---|---|-x-|---|---|
A |---|---|---|-x-|---|
E |-x-|---|---|---|---|
Am
Am
e |---|---|---|---|---|
B |-x-|---|---|---|---|
G |---|-x-|---|---|---|
D |---|-x-|---|---|---|
A |---|---|---|---|---|
E |---|---|---|---|---|
Am7
Am7
e |---|---|---|---|---|
B |-x-|---|---|---|---|
G |---|---|---|---|---|
D |---|-x-|---|---|---|
A |---|---|---|---|---|
E |---|---|---|---|---|
D
D
e |---|-x-|---|---|---|
B |---|---|-x-|---|---|
G |---|-x-|---|---|---|
D |---|---|---|---|---|
A |---|---|---|---|---|
E |---|---|---|---|---|
Said don't you know all those little browneyed girls G Cadd9 G D (play til end of song) Want playboys of the south, well from the southwestern world. Ah, we're still best friends...temporary cell mates.

Added On December 4th, 2013

SHARE

Comments

blog comments powered by Disqus

ADVERTISEMENT