Blur Tabs

Jets

1 versions

TAB

            Jets Tab by Blur


E---------------------------
B---------------------------
G----(b)14---12----(b)12----
D------------------14----14-
A---------------------------
E---------------------------   

play twice..then

E-----------------------------------------------------
B---12--12--12--12----------12--12--12----------------
G-------------------(b)-11------------------14--12----
D--------------------------------------------------14-
A-----------------------------------------------------
E-----------------------------------------------------                    

repeat most of the way through   

Jets are like comets at sunset.........

Any queries: lana21786@aol.com    

Added On December 4th, 2013

SHARE

Comments

blog comments powered by Disqus

ADVERTISEMENT