Bob Marley Tabs

Could You Be Loved

5 versions

TAB

            Could You Be Loved Tab by Bob Marley



-----------------------------------------------------------------------------
                        Bob Marley
                     Could You Be Loved
----------------------------------------------------------------------------

tab-moptop

tuning-Normal

this is pretty much the song.  there are other variations 
THIS IS NOT the order of the song he does change it up a bit.
              listen to the song for timing
  |----------------|x3 |------------|ending after the 3rd time
e|--------------------------------------------------------|
b|--------------------------------------------------------|
g|--------------------------------------------------------|
d|--------------------------------------------------------|
a|-2--2--2-2-4-5-4------2---2---2--2----------------------|
e|--------------------------------------------------------|
pm..................................

   then he eventually plays this              
   |--------------|x2                     *ending played faster.   
e|--------------------------------------------------------
b|--------------------------------------------------------|
g|--------------------------------------------------------|
d|--------------------2--2--2-2-4-5-4---------------------|
a|-2--2--2-2-4-5-4--------------------2--2--2-2-0--2-0----|
e|-----------------------------------------------2----2---|

thats all i have know..again listen when he plays these and there are other variations    

Added On December 4th, 2013

SHARE

Comments

blog comments powered by Disqus